  0
SECTION
  2
HEADER
  9
$ACADVER
  1
AC1009
  9
$LUNITS
 70
2
  9
$LUPREC
 70
4
  9
$LTSCALE
 40
1.0
  9
$EXTMIN
 10
-30.3177
 20
33.3285
 30
0
  9
$EXTMAX
 10
251.6749
 20
230.337
 30
0
  0
ENDSEC
  0
SECTION
  2
TABLES
  0
TABLE
  2
LTYPE
 70
256
  0
LTYPE
  2
AIGENLINE001
 70
64
  3
generate AI->DXF Converter
 72
65
 73
2
 40
0.3669
 49
0.1834
 49
-0.1834
  0
LTYPE
  2
AIGENLINE002
 70
64
  3
generate AI->DXF Converter
 72
65
 73
2
 40
0.0183
 49
0.0092
 49
-0.0092
  0
LTYPE
  2
AIGENLINE003
 70
64
  3
generate AI->DXF Converter
 72
65
 73
2
 40
1.107
 49
0.5535
 49
-0.5535
  0
LTYPE
  2
AIGENLINE004
 70
64
  3
generate AI->DXF Converter
 72
65
 73
2
 40
1.2227
 49
0.6114
 49
-0.6114
  0
LTYPE
  2
AIGENLINE005
 70
64
  3
generate AI->DXF Converter
 72
65
 73
2
 40
1.143
 49
0.5715
 49
-0.5715
  0
LTYPE
  2
AIGENLINE006
 70
64
  3
generate AI->DXF Converter
 72
65
 73
2
 40
1.1148
 49
0.5574
 49
-0.5574
  0
LTYPE
  2
AIGENLINE007
 70
64
  3
generate AI->DXF Converter
 72
65
 73
2
 40
0.592
 49
0.296
 49
-0.296
  0
LTYPE
  2
AIGENLINE008
 70
64
  3
generate AI->DXF Converter
 72
65
 73
2
 40
1.1077
 49
0.5539
 49
-0.5539
  0
LTYPE
  2
AIGENLINE009
 70
64
  3
generate AI->DXF Converter
 72
65
 73
2
 40
1.119
 49
0.5595
 49
-0.5595
  0
LTYPE
  2
AIGENLINE010
 70
64
  3
generate AI->DXF Converter
 72
65
 73
2
 40
0.3761
 49
0.188
 49
-0.188
  0
LTYPE
  2
AIGENLINE011
 70
64
  3
generate AI->DXF Converter
 72
65
 73
2
 40
0.3224
 49
0.1612
 49
-0.1612
  0
LTYPE
  2
AIGENLINE012
 70
64
  3
generate AI->DXF Converter
 72
65
 73
2
 40
0.8283
 49
0.4142
 49
-0.4142
  0
LTYPE
  2
AIGENLINE013
 70
64
  3
generate AI->DXF Converter
 72
65
 73
2
 40
0.5757
 49
0.2879
 49
-0.2879
  0
LTYPE
  2
AIGENLINE014
 70
64
  3
generate AI->DXF Converter
 72
65
 73
2
 40
0.0113
 49
0.0056
 49
-0.0056
  0
LTYPE
  2
AIGENLINE015
 70
64
  3
generate AI->DXF Converter
 72
65
 73
2
 40
0.4501
 49
0.2251
 49
-0.2251
  0
LTYPE
  2
AIGENLINE016
 70
64
  3
generate AI->DXF Converter
 72
65
 73
2
 40
0.0106
 49
0.0053
 49
-0.0053
  0
LTYPE
  2
AIGENLINE017
 70
64
  3
generate AI->DXF Converter
 72
65
 73
2
 40
1.1049
 49
0.5525
 49
-0.5525
  0
LTYPE
  2
AIGENLINE018
 70
64
  3
generate AI->DXF Converter
 72
65
 73
2
 40
0.7902
 49
0.3951
 49
-0.3951
  0
LTYPE
  2
AIGENLINE019
 70
64
  3
generate AI->DXF Converter
 72
65
 73
2
 40
0.6399
 49
0.32
 49
-0.32
  0
LTYPE
  2
AIGENLINE020
 70
64
  3
generate AI->DXF Converter
 72
65
 73
2
 40
1.0957
 49
0.5479
 49
-0.5479
  0
LTYPE
  2
AIGENLINE021
 70
64
  3
generate AI->DXF Converter
 72
65
 73
2
 40
1.1388
 49
0.5694
 49
-0.5694
  0
LTYPE
  2
AIGENLINE022
 70
64
  3
generate AI->DXF Converter
 72
65
 73
2
 40
0.2208
 49
0.1104
 49
-0.1104
  0
LTYPE
  2
AIGENLINE023
 70
64
  3
generate AI->DXF Converter
 72
65
 73
2
 40
0.2561
 49
0.1281
 49
-0.1281
  0
LTYPE
  2
AIGENLINE024
 70
64
  3
generate AI->DXF Converter
 72
65
 73
2
 40
0.7211
 49
0.3605
 49
-0.3605
  0
LTYPE
  2
AIGENLINE025
 70
64
  3
generate AI->DXF Converter
 72
65
 73
2
 40
0.3838
 49
0.1919
 49
-0.1919
  0
LTYPE
  2
AIGENLINE026
 70
64
  3
generate AI->DXF Converter
 72
65
 73
2
 40
1.0929
 49
0.5465
 49
-0.5465
  0
LTYPE
  2
AIGENLINE027
 70
64
  3
generate AI->DXF Converter
 72
65
 73
2
 40
0.3627
 49
0.1813
 49
-0.1813
  0
LTYPE
  2
AIGENLINE028
 70
64
  3
generate AI->DXF Converter
 72
65
 73
2
 40
0.7437
 49
0.3718
 49
-0.3718
  0
LTYPE
  2
AIGENLINE029
 70
64
  3
generate AI->DXF Converter
 72
65
 73
2
 40
0.3859
 49
0.193
 49
-0.193
  0
LTYPE
  2
AIGENLINE030
 70
64
  3
generate AI->DXF Converter
 72
65
 73
2
 40
0.2201
 49
0.1101
 49
-0.1101
  0
LTYPE
  2
AIGENLINE031
 70
64
  3
generate AI->DXF Converter
 72
65
 73
2
 40
1.0936
 49
0.5468
 49
-0.5468
  0
LTYPE
  2
AIGENLINE032
 70
64
  3
generate AI->DXF Converter
 72
65
 73
2
 40
1.0068
 49
0.5034
 49
-0.5034
  0
LTYPE
  2
AIGENLINE033
 70
64
  3
generate AI->DXF Converter
 72
65
 73
2
 40
0.4614
 49
0.2307
 49
-0.2307
  0
LTYPE
  2
AIGENLINE034
 70
64
  3
generate AI->DXF Converter
 72
65
 73
2
 40
1.0915
 49
0.5457
 49
-0.5457
  0
LTYPE
  2
AIGENLINE035
 70
64
  3
generate AI->DXF Converter
 72
65
 73
2
 40
1.1465
 49
0.5733
 49
-0.5733
  0
LTYPE
  2
AIGENLINE036
 70
64
  3
generate AI->DXF Converter
 72
65
 73
2
 40
0.4995
 49
0.2498
 49
-0.2498
  0
LTYPE
  2
AIGENLINE037
 70
64
  3
generate AI->DXF Converter
 72
65
 73
2
 40
1.0633
 49
0.5316
 49
-0.5316
  0
LTYPE
  2
AIGENLINE038
 70
64
  3
generate AI->DXF Converter
 72
65
 73
2
 40
1.1818
 49
0.5909
 49
-0.5909
  0
LTYPE
  2
AIGENLINE039
 70
64
  3
generate AI->DXF Converter
 72
65
 73
2
 40
1.0901
 49
0.545
 49
-0.545
  0
LTYPE
  2
AIGENLINE040
 70
64
  3
generate AI->DXF Converter
 72
65
 73
2
 40
1.1592
 49
0.5796
 49
-0.5796
  0
LTYPE
  2
AIGENLINE041
 70
64
  3
generate AI->DXF Converter
 72
65
 73
2
 40
0.5602
 49
0.2801
 49
-0.2801
  0
LTYPE
  2
AIGENLINE042
 70
64
  3
generate AI->DXF Converter
 72
65
 73
2
 40
0.5623
 49
0.2812
 49
-0.2812
  0
LTYPE
  2
AIGENLINE043
 70
64
  3
generate AI->DXF Converter
 72
65
 73
2
 40
1.3935
 49
0.6967
 49
-0.6967
  0
LTYPE
  2
AIGENLINE044
 70
64
  3
generate AI->DXF Converter
 72
65
 73
2
 40
0.5913
 49
0.2956
 49
-0.2956
  0
LTYPE
  2
AIGENLINE045
 70
64
  3
generate AI->DXF Converter
 72
65
 73
2
 40
0.9821
 49
0.4911
 49
-0.4911
  0
LTYPE
  2
AIGENLINE046
 70
64
  3
generate AI->DXF Converter
 72
65
 73
2
 40
0.5616
 49
0.2808
 49
-0.2808
  0
LTYPE
  2
AIGENLINE047
 70
64
  3
generate AI->DXF Converter
 72
65
 73
2
 40
1.1613
 49
0.5807
 49
-0.5807
  0
LTYPE
  2
AIGENLINE048
 70
64
  3
generate AI->DXF Converter
 72
65
 73
2
 40
1.2848
 49
0.6424
 49
-0.6424
  0
LTYPE
  2
AIGENLINE049
 70
64
  3
generate AI->DXF Converter
 72
65
 73
2
 40
1.2453
 49
0.6227
 49
-0.6227
  0
LTYPE
  2
AIGENLINE050
 70
64
  3
generate AI->DXF Converter
 72
65
 73
2
 40
0.9567
 49
0.4784
 49
-0.4784
  0
LTYPE
  2
AIGENLINE051
 70
64
  3
generate AI->DXF Converter
 72
65
 73
2
 40
1.1113
 49
0.5556
 49
-0.5556
  0
LTYPE
  2
AIGENLINE052
 70
64
  3
generate AI->DXF Converter
 72
65
 73
2
 40
0.956
 49
0.478
 49
-0.478
  0
LTYPE
  2
AIGENLINE053
 70
64
  3
generate AI->DXF Converter
 72
65
 73
2
 40
1.1211
 49
0.5606
 49
-0.5606
  0
LTYPE
  2
AIGENLINE054
 70
64
  3
generate AI->DXF Converter
 72
65
 73
2
 40
1.0534
 49
0.5267
 49
-0.5267
  0
LTYPE
  2
AIGENLINE055
 70
64
  3
generate AI->DXF Converter
 72
65
 73
2
 40
1.1409
 49
0.5704
 49
-0.5704
  0
LTYPE
  2
AIGENLINE056
 70
64
  3
generate AI->DXF Converter
 72
65
 73
2
 40
1.2778
 49
0.6389
 49
-0.6389
  0
LTYPE
  2
AIGENLINE057
 70
64
  3
generate AI->DXF Converter
 72
65
 73
2
 40
0.9581
 49
0.4791
 49
-0.4791
  0
LTYPE
  2
AIGENLINE058
 70
64
  3
generate AI->DXF Converter
 72
65
 73
2
 40
0.925
 49
0.4625
 49
-0.4625
  0
LTYPE
  2
AIGENLINE059
 70
64
  3
generate AI->DXF Converter
 72
65
 73
2
 40
1.0597
 49
0.5299
 49
-0.5299
  0
LTYPE
  2
AIGENLINE060
 70
64
  3
generate AI->DXF Converter
 72
65
 73
2
 40
0.3852
 49
0.1926
 49
-0.1926
  0
LTYPE
  2
AIGENLINE061
 70
64
  3
generate AI->DXF Converter
 72
65
 73
2
 40
1.3272
 49
0.6636
 49
-0.6636
  0
LTYPE
  2
AIGENLINE062
 70
64
  3
generate AI->DXF Converter
 72
65
 73
2
 40
1.1486
 49
0.5743
 49
-0.5743
  0
LTYPE
  2
AIGENLINE063
 70
64
  3
generate AI->DXF Converter
 72
65
 73
2
 40
1.1966
 49
0.5983
 49
-0.5983
  0
LTYPE
  2
AIGENLINE064
 70
64
  3
generate AI->DXF Converter
 72
65
 73
2
 40
1.1578
 49
0.5789
 49
-0.5789
  0
LTYPE
  2
AIGENLINE065
 70
64
  3
generate AI->DXF Converter
 72
65
 73
2
 40
1.3942
 49
0.6971
 49
-0.6971
  0
LTYPE
  2
AIGENLINE066
 70
64
  3
generate AI->DXF Converter
 72
65
 73
2
 40
1.1395
 49
0.5697
 49
-0.5697
  0
LTYPE
  2
AIGENLINE067
 70
64
  3
generate AI->DXF Converter
 72
65
 73
2
 40
1.1381
 49
0.569
 49
-0.569
  0
LTYPE
  2
AIGENLINE068
 70
64
  3
generate AI->DXF Converter
 72
65
 73
2
 40
1.1042
 49
0.5521
 49
-0.5521
  0
LTYPE
  2
AIGENLINE069
 70
64
  3
generate AI->DXF Converter
 72
65
 73
2
 40
1.1247
 49
0.5623
 49
-0.5623
  0
LTYPE
  2
AIGENLINE070
 70
64
  3
generate AI->DXF Converter
 72
65
 73
2
 40
1.1098
 49
0.5549
 49
-0.5549
  0
ENDTAB
  0
TABLE
  2
LAYER
 70
1
  0
LAYER
  2
LAYER_1
 70
64
 62
7
  6
CONTINUOUS
  0
ENDTAB
  0
TABLE
  2
STYLE
 70
6
  0
STYLE
  2
STANDARD
 70
0
 40
0
 50
0
 71
0
 41
0
 42
0
  3
TXT
  4
BIGFONT
  0
ENDTAB
  0
ENDSEC
  0
SECTION
  2
BLOCKS
  0
BLOCK
  8
LAYER_1
  2
AIGNBL01040009
 70
64
 10
0
 20
0
 30
0
  3
AIGNBL01040009
  0
POLYLINE
  8
LAYER_1
 40
0.05
 41
0.05
 66
1
 10
0
 20
0
 30
0
 70
1
  0
VERTEX
  8
LAYER_1
 10
146.7545
 20
39.1418
  0
VERTEX
  8
LAYER_1
 10
146.2657
 20
37.9567
  0
VERTEX
  8
LAYER_1
 10
145.6376
 20
37.9567
  0
VERTEX
  8
LAYER_1
 10
147.2372
 20
41.7225
  0
VERTEX
  8
LAYER_1
 10
147.9703
 20
41.7225
  0
VERTEX
  8
LAYER_1
 10
149.5767
 20
37.9567
  0
VERTEX
  8
LAYER_1
 10
148.9267
 20
37.9567
  0
VERTEX
  8
LAYER_1
 10
148.424
 20
39.1418
  0
SEQEND
  0
POLYLINE
  8
LAYER_1
 40
0.05
 41
0.05
 66
1
 10
0
 20
0
 30
0
 70
1
  0
VERTEX
  8
LAYER_1
 10
148.2983
 20
39.5208
  0
VERTEX
  8
LAYER_1
 10
147.8373
 20
40.6056
 42
-0.02317247198
  0
VERTEX
  8
LAYER_1
 10
147.5927
 20
41.2926
  0
VERTEX
  8
LAYER_1
 10
147.5789
 20
41.2926
 42
-0.02064481114
  0
VERTEX
  8
LAYER_1
 10
147.3412
 20
40.6101
  0
VERTEX
  8
LAYER_1
 10
146.8806
 20
39.5208
  0
SEQEND
  0
ENDBLK
  0
BLOCK
  8
LAYER_1
  2
AIGNBL0104000A
 70
64
 10
0
 20
0
 30
0
  3
AIGNBL0104000A
  0
POLYLINE
  8
LAYER_1
 40
0.05
 41
0.05
 66
1
 10
0
 20
0
 30
0
 70
1
  0
VERTEX
  8
LAYER_1
 10
153.942
 20
37.4034
 42
-0.01525137561
  0
VERTEX
  8
LAYER_1
 10
152.1399
 20
37.8396
 42
0.09192818596
  0
VERTEX
  8
LAYER_1
 10
151.8533
 20
37.895
 42
-0.09256808484
  0
VERTEX
  8
LAYER_1
 10
150.8994
 20
38.0977
 42
-0.09799469934
  0
VERTEX
  8
LAYER_1
 10
150.2621
 20
38.5324
 42
-0.1630918382
  0
VERTEX
  8
LAYER_1
 10
149.7964
 20
39.5259
 42
-0.0316951694
  0
VERTEX
  8
LAYER_1
 10
149.7793
 20
39.7998
 42
-0.1055313794
  0
VERTEX
  8
LAYER_1
 10
149.9533
 20
40.6417
 42
-0.1619874109
  0
VERTEX
  8
LAYER_1
 10
150.7418
 20
41.4867
 42
-0.09224146328
  0
VERTEX
  8
LAYER_1
 10
151.5409
 20
41.7524
 42
-0.03717154931
  0
VERTEX
  8
LAYER_1
 10
151.9725
 20
41.7838
 42
-0.09530535683
  0
VERTEX
  8
LAYER_1
 10
152.9361
 20
41.6062
 42
-0.1001834594
  0
VERTEX
  8
LAYER_1
 10
153.5732
 20
41.1834
 42
-0.1611157059
  0
VERTEX
  8
LAYER_1
 10
154.06
 20
40.1825
 42
-0.03590950521
  0
VERTEX
  8
LAYER_1
 10
154.0816
 20
39.8784
 42
-0.1066899695
  0
VERTEX
  8
LAYER_1
 10
153.9052
 20
39.0236
 42
-0.2183856259
  0
VERTEX
  8
LAYER_1
 10
152.7953
 20
38.0897
 42
-0.006706171784
  0
VERTEX
  8
LAYER_1
 10
152.7407
 20
38.0738
  0
VERTEX
  8
LAYER_1
 10
152.7407
 20
38.0514
 42
0.01533555045
  0
VERTEX
  8
LAYER_1
 10
154.117
 20
37.8113
  0
SEQEND
  0
POLYLINE
  8
LAYER_1
 40
0.05
 41
0.05
 66
1
 10
0
 20
0
 30
0
 70
1
  0
VERTEX
  8
LAYER_1
 10
153.4394
 20
39.857
 42
0.1175610784
  0
VERTEX
  8
LAYER_1
 10
153.257
 20
40.6254
 42
0.1170135141
  0
VERTEX
  8
LAYER_1
 10
152.8315
 20
41.1234
 42
0.1200044572
  0
VERTEX
  8
LAYER_1
 10
152.2186
 20
41.3675
 42
0.03774262044
  0
VERTEX
  8
LAYER_1
 10
151.9511
 20
41.3873
 42
0.1153139376
  0
VERTEX
  8
LAYER_1
 10
151.2089
 20
41.2226
 42
0.1853550912
  0
VERTEX
  8
LAYER_1
 10
150.5507
 20
40.4882
 42
0.09859892291
  0
VERTEX
  8
LAYER_1
 10
150.4287
 20
39.8122
 42
0.1178359247
  0
VERTEX
  8
LAYER_1
 10
150.5964
 20
39.0734
 42
0.2866694251
  0
VERTEX
  8
LAYER_1
 10
151.9232
 20
38.2912
 42
0.1188197759
  0
VERTEX
  8
LAYER_1
 10
152.6722
 20
38.4633
 42
0.1796740134
  0
VERTEX
  8
LAYER_1
 10
153.3126
 20
39.18
 42
0.09850052237
  0
SEQEND
  0
ENDBLK
  0
BLOCK
  8
LAYER_1
  2
AIGNBL0104000B
 70
64
 10
0
 20
0
 30
0
  3
AIGNBL0104000B
  0
POLYLINE
  8
LAYER_1
 40
0.05
 41
0.05
 66
1
 10
0
 20
0
 30
0
 70
1
  0
VERTEX
  8
LAYER_1
 10
155.4089
 20
41.7225
  0
VERTEX
  8
LAYER_1
 10
155.4089
 20
39.4932
 42
0.1220213404
  0
VERTEX
  8
LAYER_1
 10
155.569
 20
38.7775
 42
0.2218709818
  0
VERTEX
  8
LAYER_1
 10
156.2104
 20
38.3206
 42
0.05223876895
  0
VERTEX
  8
LAYER_1
 10
156.5055
 20
38.2912
 42
0.1302821267
  0
VERTEX
  8
LAYER_1
 10
157.1748
 20
38.452
 42
0.1509367336
  0
VERTEX
  8
LAYER_1
 10
157.526
 20
38.8454
 42
0.1174732039
  0
VERTEX
  8
LAYER_1
 10
157.651
 20
39.4932
  0
VERTEX
  8
LAYER_1
 10
157.651
 20
41.7225
  0
VERTEX
  8
LAYER_1
 10
158.2656
 20
41.7225
  0
VERTEX
  8
LAYER_1
 10
158.2656
 20
39.5266
 42
-0.1106199636
  0
VERTEX
  8
LAYER_1
 10
158.0961
 20
38.708
 42
-0.1822316276
  0
VERTEX
  8
LAYER_1
 10
157.4057
 20
38.0637
 42
-0.09768689614
  0
VERTEX
  8
LAYER_1
 10
156.6028
 20
37.8972
 42
-0.01000776787
  0
VERTEX
  8
LAYER_1
 10
156.4845
 20
37.895
 42
-0.09899827608
  0
VERTEX
  8
LAYER_1
 10
155.612
 20
38.0554
 42
-0.1209605854
  0
VERTEX
  8
LAYER_1
 10
155.1093
 20
38.4366
 42
-0.1192983303
  0
VERTEX
  8
LAYER_1
 10
154.8407
 20
39.0317
 42
-0.05319533763
  0
VERTEX
  8
LAYER_1
 10
154.7943
 20
39.5046
  0
VERTEX
  8
LAYER_1
 10
154.7943
 20
41.7225
  0
SEQEND
  0
ENDBLK
  0
BLOCK
  8
LAYER_1
  2
AIGNBL0104000C
 70
64
 10
0
 20
0
 30
0
  3
AIGNBL0104000C
  0
POLYLINE
  8
LAYER_1
 40
0.05
 41
0.05
 66
1
 10
0
 20
0
 30
0
 70
1
  0
VERTEX
  8
LAYER_1
 10
160.0119
 20
39.1418
  0
VERTEX
  8
LAYER_1
 10
159.5227
 20
37.9567
  0
VERTEX
  8
LAYER_1
 10
158.8947
 20
37.9567
  0
VERTEX
  8
LAYER_1
 10
160.4939
 20
41.7225
  0
VERTEX
  8
LAYER_1
 10
161.227
 20
41.7225
  0
VERTEX
  8
LAYER_1
 10
162.8335
 20
37.9567
  0
VERTEX
  8
LAYER_1
 10
162.1841
 20
37.9567
  0
VERTEX
  8
LAYER_1
 10
161.6814
 20
39.1418
  0
SEQEND
  0
POLYLINE
  8
LAYER_1
 40
0.05
 41
0.05
 66
1
 10
0
 20
0
 30
0
 70
1
  0
VERTEX
  8
LAYER_1
 10
161.5553
 20
39.5208
  0
VERTEX
  8
LAYER_1
 10
161.094
 20
40.6056
 42
-0.02227599701
  0
VERTEX
  8
LAYER_1
 10
160.8494
 20
41.2926
  0
VERTEX
  8
LAYER_1
 10
160.8357
 20
41.2926
 42
-0.0206476565
  0
VERTEX
  8
LAYER_1
 10
160.5983
 20
40.6101
  0
VERTEX
  8
LAYER_1
 10
160.1373
 20
39.5208
  0
SEQEND
  0
ENDBLK
  0
BLOCK
  8
LAYER_1
  2
AIGNBL0104000D
 70
64
 10
0
 20
0
 30
0
  3
AIGNBL0104000D
  0
POLYLINE
  8
LAYER_1
 40
0.05
 41
0.05
 66
1
 10
0
 20
0
 30
0
 70
1
  0
VERTEX
  8
LAYER_1
 10
163.8742
 20
41.6777
 42
-0.03334485223
  0
VERTEX
  8
LAYER_1
 10
165.0411
 20
41.7508
 42
-0.08841555942
  0
VERTEX
  8
LAYER_1
 10
166.0872
 20
41.5858
 42
-0.06038484967
  0
VERTEX
  8
LAYER_1
 10
166.3609
 20
41.438
 42
-0.2471651456
  0
VERTEX
  8
LAYER_1
 10
166.7726
 20
40.6497
 42
-0.1483298328
  0
VERTEX
  8
LAYER_1
 10
166.6029
 20
40.0554
 42
-0.07223194904
  0
VERTEX
  8
LAYER_1
 10
166.4095
 20
39.8456
 42
-0.1209372404
  0
VERTEX
  8
LAYER_1
 10
165.7228
 20
39.517
 42
-0.06224269186
  0
VERTEX
  8
LAYER_1
 10
164.9708
 20
39.4319
 42
-0.05738783264
  0
VERTEX
  8
LAYER_1
 10
164.4823
 20
39.4653
  0
VERTEX
  8
LAYER_1
 10
164.4823
 20
37.9567
  0
VERTEX
  8
LAYER_1
 10
163.8742
 20
37.9567
  0
SEQEND
  0
POLYLINE
  8
LAYER_1
 40
0.05
 41
0.05
 66
1
 10
0
 20
0
 30
0
 70
1
  0
VERTEX
  8
LAYER_1
 10
164.4823
 20
39.8622
 42
0.05012782438
  0
VERTEX
  8
LAYER_1
 10
164.9846
 20
39.8229
 42
0.1135463519
  0
VERTEX
  8
LAYER_1
 10
165.7697
 20
39.9822
 42
0.1653329065
  0
VERTEX
  8
LAYER_1
 10
166.1074
 20
40.3302
 42
0.1044639943
  0
VERTEX
  8
LAYER_1
 10
166.1656
 20
40.6273
 42
0.2826437488
  0
VERTEX
  8
LAYER_1
 10
165.8147
 20
41.2103
 42
0.0629694601
  0
VERTEX
  8
LAYER_1
 10
165.549
 20
41.3107
 42
0.06259589917
  0
VERTEX
  8
LAYER_1
 10
165.0552
 20
41.3649
 42
0.05214717704
  0
VERTEX
  8
LAYER_1
 10
164.4823
 20
41.3256
  0
SEQEND
  0
ENDBLK
  0
BLOCK
  8
LAYER_1
  2
AIGNBL0104000E
 70
64
 10
0
 20
0
 30
0
  3
AIGNBL0104000E
  0
POLYLINE
  8
LAYER_1
 40
0.05
 41
0.05
 66
1
 10
0
 20
0
 30
0
 70
1
  0
VERTEX
  8
LAYER_1
 10
168.3246
 20
41.4207
 42
-0.3048675751
  0
VERTEX
  8
LAYER_1
 10
168.1582
 20
41.1661
 42
-0.1151020929
  0
VERTEX
  8
LAYER_1
 10
167.9329
 20
41.1189
 42
-0.2442513348
  0
VERTEX
  8
LAYER_1
 10
167.6028
 20
41.2794
 42
-0.1394546152
  0
VERTEX
  8
LAYER_1
 10
167.5626
 20
41.4207
 42
-0.287439772
  0
VERTEX
  8
LAYER_1
 10
167.7346
 20
41.6803
 42
-0.1179404017
  0
VERTEX
  8
LAYER_1
 10
167.9467
 20
41.7277
 42
-0.2416274379
  0
VERTEX
  8
LAYER_1
 10
168.2814
 20
41.5719
 42
-0.1426378456
  0
SEQEND
  0
POLYLINE
  8
LAYER_1
 40
0.05
 41
0.05
 66
1
 10
0
 20
0
 30
0
 70
1
  0
VERTEX
  8
LAYER_1
 10
167.639
 20
37.9567
  0
VERTEX
  8
LAYER_1
 10
167.639
 20
40.6607
  0
VERTEX
  8
LAYER_1
 10
168.2536
 20
40.6607
  0
VERTEX
  8
LAYER_1
 10
168.2536
 20
37.9567
  0
SEQEND
  0
ENDBLK
  0
BLOCK
  8
LAYER_1
  2
AIGNBL0104000F
 70
64
 10
0
 20
0
 30
0
  3
AIGNBL0104000F
  0
POLYLINE
  8
LAYER_1
 40
0.05
 41
0.05
 66
1
 10
0
 20
0
 30
0
 70
1
  0
VERTEX
  8
LAYER_1
 10
170.1254
 20
39.1418
  0
VERTEX
  8
LAYER_1
 10
169.6372
 20
37.9567
  0
VERTEX
  8
LAYER_1
 10
169.0081
 20
37.9567
  0
VERTEX
  8
LAYER_1
 10
170.6077
 20
41.7225
  0
VERTEX
  8
LAYER_1
 10
171.3415
 20
41.7225
  0
VERTEX
  8
LAYER_1
 10
172.9479
 20
37.9567
  0
VERTEX
  8
LAYER_1
 10
172.2982
 20
37.9567
  0
VERTEX
  8
LAYER_1
 10
171.7955
 20
39.1418
  0
SEQEND
  0
POLYLINE
  8
LAYER_1
 40
0.05
 41
0.05
 66
1
 10
0
 20
0
 30
0
 70
1
  0
VERTEX
  8
LAYER_1
 10
171.6695
 20
39.5208
  0
VERTEX
  8
LAYER_1
 10
171.2085
 20
40.6056
 42
-0.02430767271
  0
VERTEX
  8
LAYER_1
 10
170.9646
 20
41.2926
  0
VERTEX
  8
LAYER_1
 10
170.9498
 20
41.2926
 42
-0.02046602706
  0
VERTEX
  8
LAYER_1
 10
170.7127
 20
40.6101
  0
VERTEX
  8
LAYER_1
 10
170.2518
 20
39.5208
  0
SEQEND
  0
ENDBLK
  0
BLOCK
  8
LAYER_1
  2
AIGNBL01030008
 70
64
 10
0
 20
0
 30
0
  3
AIGNBL01030008
  0
INSERT
  8
LAYER_1
  2
AIGNBL01040009
 10
0
 20
0
 30
0
  0
INSERT
  8
LAYER_1
  2
AIGNBL0104000A
 10
0
 20
0
 30
0
  0
INSERT
  8
LAYER_1
  2
AIGNBL0104000B
 10
0
 20
0
 30
0
  0
INSERT
  8
LAYER_1
  2
AIGNBL0104000C
 10
0
 20
0
 30
0
  0
INSERT
  8
LAYER_1
  2
AIGNBL0104000D
 10
0
 20
0
 30
0
  0
INSERT
  8
LAYER_1
  2
AIGNBL0104000E
 10
0
 20
0
 30
0
  0
INSERT
  8
LAYER_1
  2
AIGNBL0104000F
 10
0
 20
0
 30
0
  0
ENDBLK
  0
BLOCK
  8
LAYER_1
  2
AIGNBL01030011
 70
64
 10
0
 20
0
 30
0
  3
AIGNBL01030011
  0
POLYLINE
  8
LAYER_1
 40
0.05
 41
0.05
 66
1
 10
0
 20
0
 30
0
 70
1
  0
VERTEX
  8
LAYER_1
 10
145.7475
 20
36.0574
  0
VERTEX
  8
LAYER_1
 10
146.3008
 20
36.0574
  0
VERTEX
  8
LAYER_1
 10
146.3008
 20
35.9637
  0
VERTEX
  8
LAYER_1
 10
145.6424
 20
35.9637
  0
VERTEX
  8
LAYER_1
 10
145.6424
 20
36.9969
  0
VERTEX
  8
LAYER_1
 10
146.2832
 20
36.9969
  0
VERTEX
  8
LAYER_1
 10
146.2832
 20
36.9035
  0
VERTEX
  8
LAYER_1
 10
145.7475
 20
36.9035
  0
VERTEX
  8
LAYER_1
 10
145.7475
 20
36.549
  0
VERTEX
  8
LAYER_1
 10
146.2481
 20
36.549
  0
VERTEX
  8
LAYER_1
 10
146.2481
 20
36.4557
  0
VERTEX
  8
LAYER_1
 10
145.7475
 20
36.4557
  0
SEQEND
  0
ENDBLK
  0
BLOCK
  8
LAYER_1
  2
AIGNBL01030012
 70
64
 10
0
 20
0
 30
0
  3
AIGNBL01030012
  0
POLYLINE
  8
LAYER_1
 40
0.05
 41
0.05
 66
1
 10
0
 20
0
 30
0
 70
1
  0
VERTEX
  8
LAYER_1
 10
147.4404
 20
36.117
  0
VERTEX
  8
LAYER_1
 10
147.4432
 20
36.117
  0
VERTEX
  8
LAYER_1
 10
147.4432
 20
36.9969
  0
VERTEX
  8
LAYER_1
 10
147.5483
 20
36.9969
  0
VERTEX
  8
LAYER_1
 10
147.5483
 20
35.9637
  0
VERTEX
  8
LAYER_1
 10
147.4174
 20
35.9637
  0
VERTEX
  8
LAYER_1
 10
146.8162
 20
36.8525
  0
VERTEX
  8
LAYER_1
 10
146.8127
 20
36.8525
  0
VERTEX
  8
LAYER_1
 10
146.8127
 20
35.9637
  0
VERTEX
  8
LAYER_1
 10
146.708
 20
35.9637
  0
VERTEX
  8
LAYER_1
 10
146.708
 20
36.9969
  0
VERTEX
  8
LAYER_1
 10
146.8393
 20
36.9969
  0
SEQEND
  0
ENDBLK
  0
BLOCK
  8
LAYER_1
  2
AIGNBL01030013
 70
64
 10
0
 20
0
 30
0
  3
AIGNBL01030013
  0
POLYLINE
  8
LAYER_1
 40
0.05
 41
0.05
 66
1
 10
0
 20
0
 30
0
 70
1
  0
VERTEX
  8
LAYER_1
 10
148.0213
 20
36.1756
 42
0.1563325367
  0
VERTEX
  8
LAYER_1
 10
148.0757
 20
36.0726
 42
0.1919271311
  0
VERTEX
  8
LAYER_1
 10
148.1891
 20
36.0309
  0
VERTEX
  8
LAYER_1
 10
148.2783
 20
36.0505
  0
VERTEX
  8
LAYER_1
 10
148.3344
 20
36.1039
  0
VERTEX
  8
LAYER_1
 10
148.3634
 20
36.1804
  0
VERTEX
  8
LAYER_1
 10
148.3716
 20
36.27
  0
VERTEX
  8
LAYER_1
 10
148.3716
 20
36.9969
  0
VERTEX
  8
LAYER_1
 10
148.4767
 20
36.9969
  0
VERTEX
  8
LAYER_1
 10
148.4767
 20
36.2614
  0
VERTEX
  8
LAYER_1
 10
148.4654
 20
36.1535
 42
-0.09689434064
  0
VERTEX
  8
LAYER_1
 10
148.424
 20
36.0484
 42
-0.1145812533
  0
VERTEX
  8
LAYER_1
 10
148.3393
 20
35.9689
 42
-0.1249341208
  0
VERTEX
  8
LAYER_1
 10
148.2004
 20
35.9375
 42
-0.1797266639
  0
VERTEX
  8
LAYER_1
 10
148.0158
 20
35.9975
 42
-0.1772027805
  0
VERTEX
  8
LAYER_1
 10
147.9234
 20
36.149
  0
SEQEND
  0
ENDBLK
  0
BLOCK
  8
LAYER_1
  2
AIGNBL01030014
 70
64
 10
0
 20
0
 30
0
  3
AIGNBL01030014
  0
POLYLINE
  8
LAYER_1
 40
0.05
 41
0.05
 66
1
 10
0
 20
0
 30
0
 70
1
  0
VERTEX
  8
LAYER_1
 10
149.965
 20
36.4805
 42
-0.1019307791
  0
VERTEX
  8
LAYER_1
 10
149.924
 20
36.2631
 42
-0.09962254273
  0
VERTEX
  8
LAYER_1
 10
149.8114
 20
36.0915
 42
-0.09627361929
  0
VERTEX
  8
LAYER_1
 10
149.6405
 20
35.9785
 42
-0.09758594962
  0
VERTEX
  8
LAYER_1
 10
149.4265
 20
35.9375
 42
-0.1000844711
  0
VERTEX
  8
LAYER_1
 10
149.2129
 20
35.9785
 42
-0.09985105323
  0
VERTEX
  8
LAYER_1
 10
149.0421
 20
36.0915
 42
-0.09735230618
  0
VERTEX
  8
LAYER_1
 10
148.9287
 20
36.2631
 42
-0.09653980076
  0
VERTEX
  8
LAYER_1
 10
148.8881
 20
36.4805
 42
-0.1004594477
  0
VERTEX
  8
LAYER_1
 10
148.9287
 20
36.6978
 42
-0.1001669327
  0
VERTEX
  8
LAYER_1
 10
149.0421
 20
36.8694
 42
-0.09871200056
  0
VERTEX
  8
LAYER_1
 10
149.2129
 20
36.9824
 42
-0.09768823248
  0
VERTEX
  8
LAYER_1
 10
149.4265
 20
37.0234
 42
-0.1000514256
  0
VERTEX
  8
LAYER_1
 10
149.6405
 20
36.9824
 42
-0.0983303992
  0
VERTEX
  8
LAYER_1
 10
149.8114
 20
36.8694
 42
-0.09762598086
  0
VERTEX
  8
LAYER_1
 10
149.924
 20
36.6978
 42
-0.09788199595
  0
SEQEND
  0
POLYLINE
  8
LAYER_1
 40
0.05
 41
0.05
 66
1
 10
0
 20
0
 30
0
 70
1
  0
VERTEX
  8
LAYER_1
 10
149.8541
 20
36.4798
 42
0.08634913196
  0
VERTEX
  8
LAYER_1
 10
149.8251
 20
36.6517
 42
0.09663020944
  0
VERTEX
  8
LAYER_1
 10
149.7404
 20
36.795
 42
0.1032857511
  0
VERTEX
  8
LAYER_1
 10
149.6053
 20
36.8932
 42
0.1061320656
  0
VERTEX
  8
LAYER_1
 10
149.4265
 20
36.93
 42
0.1113757871
  0
VERTEX
  8
LAYER_1
 10
149.2477
 20
36.8932
 42
0.1056595975
  0
VERTEX
  8
LAYER_1
 10
149.113
 20
36.795
 42
0.09787799956
  0
VERTEX
  8
LAYER_1
 10
149.0283
 20
36.6517
 42
0.08491464556
  0
VERTEX
  8
LAYER_1
 10
148.999
 20
36.4798
 42
0.08693146424
  0
VERTEX
  8
LAYER_1
 10
149.0283
 20
36.3079
 42
0.1009797617
  0
VERTEX
  8
LAYER_1
 10
149.113
 20
36.1649
 42
0.09920321622
  0
VERTEX
  8
LAYER_1
 10
149.2477
 20
36.0674
 42
0.1060640085
  0
VERTEX
  8
LAYER_1
 10
149.4265
 20
36.0309
 42
0.1126980581
  0
VERTEX
  8
LAYER_1
 10
149.6053
 20
36.0674
 42
0.1035582302
  0
VERTEX
  8
LAYER_1
 10
149.7404
 20
36.1649
 42
0.09432567525
  0
VERTEX
  8
LAYER_1
 10
149.8251
 20
36.3079
 42
0.08466662837
  0
SEQEND
  0
ENDBLK
  0
BLOCK
  8
LAYER_1
  2
AIGNBL01030015
 70
64
 10
0
 20
0
 30
0
  3
AIGNBL01030015
  0
POLYLINE
  8
LAYER_1
 40
0.05
 41
0.05
 66
1
 10
0
 20
0
 30
0
 70
1
  0
VERTEX
  8
LAYER_1
 10
150.7398
 20
35.9637
  0
VERTEX
  8
LAYER_1
 10
150.6351
 20
35.9637
  0
VERTEX
  8
LAYER_1
 10
150.6351
 20
36.4091
  0
VERTEX
  8
LAYER_1
 10
150.2482
 20
36.9969
  0
VERTEX
  8
LAYER_1
 10
150.3795
 20
36.9969
  0
VERTEX
  8
LAYER_1
 10
150.6905
 20
36.4967
  0
VERTEX
  8
LAYER_1
 10
151.004
 20
36.9969
  0
VERTEX
  8
LAYER_1
 10
151.1263
 20
36.9969
  0
VERTEX
  8
LAYER_1
 10
150.7398
 20
36.4091
  0
SEQEND
  0
ENDBLK
  0
BLOCK
  8
LAYER_1
  2
AIGNBL01030016
 70
64
 10
0
 20
0
 30
0
  3
AIGNBL01030016
  0
POLYLINE
  8
LAYER_1
 40
0.05
 41
0.05
 66
1
 10
0
 20
0
 30
0
 70
1
  0
VERTEX
  8
LAYER_1
 10
152.0314
 20
36.9969
  0
VERTEX
  8
LAYER_1
 10
152.339
 20
36.9969
  0
VERTEX
  8
LAYER_1
 10
152.4575
 20
36.9845
  0
VERTEX
  8
LAYER_1
 10
152.5643
 20
36.9421
 42
-0.1168262011
  0
VERTEX
  8
LAYER_1
 10
152.6422
 20
36.8611
 42
-0.1230288266
  0
VERTEX
  8
LAYER_1
 10
152.6718
 20
36.733
 42
-0.1795449175
  0
VERTEX
  8
LAYER_1
 10
152.6219
 20
36.5907
 42
-0.1695619646
  0
VERTEX
  8
LAYER_1
 10
152.4885
 20
36.5111
  0
VERTEX
  8
LAYER_1
 10
152.4885
 20
36.5084
 42
-0.1719890535
  0
VERTEX
  8
LAYER_1
 10
152.6553
 20
36.4302
 42
-0.2018462152
  0
VERTEX
  8
LAYER_1
 10
152.7214
 20
36.2496
 42
-0.1251382371
  0
VERTEX
  8
LAYER_1
 10
152.6942
 20
36.1325
 42
-0.1153486961
  0
VERTEX
  8
LAYER_1
 10
152.6181
 20
36.0419
 42
-0.08656795839
  0
VERTEX
  8
LAYER_1
 10
152.4972
 20
35.9844
 42
-0.06557363107
  0
VERTEX
  8
LAYER_1
 10
152.3373
 20
35.9637
  0
VERTEX
  8
LAYER_1
 10
152.0314
 20
35.9637
  0
SEQEND
  0
POLYLINE
  8
LAYER_1
 40
0.05
 41
0.05
 66
1
 10
0
 20
0
 30
0
 70
1
  0
VERTEX
  8
LAYER_1
 10
152.1365
 20
36.5445
  0
VERTEX
  8
LAYER_1
 10
152.348
 20
36.5445
  0
VERTEX
  8
LAYER_1
 10
152.4248
 20
36.5535
  0
VERTEX
  8
LAYER_1
 10
152.4951
 20
36.5831
  0
VERTEX
  8
LAYER_1
 10
152.5471
 20
36.6396
 42
0.1157679243
  0
VERTEX
  8
LAYER_1
 10
152.5667
 20
36.7258
  0
VERTEX
  8
LAYER_1
 10
152.5471
 20
36.8095
  0
VERTEX
  8
LAYER_1
 10
152.4941
 20
36.8656
  0
VERTEX
  8
LAYER_1
 10
152.4152
 20
36.897
  0
VERTEX
  8
LAYER_1
 10
152.3187
 20
36.9066
  0
VERTEX
  8
LAYER_1
 10
152.1365
 20
36.9066
  0
SEQEND
  0
POLYLINE
  8
LAYER_1
 40
0.05
 41
0.05
 66
1
 10
0
 20
0
 30
0
 70
1
  0
VERTEX
  8
LAYER_1
 10
152.1365
 20
36.0543
  0
VERTEX
  8
LAYER_1
 10
152.3321
 20
36.0543
  0
VERTEX
  8
LAYER_1
 10
152.4407
 20
36.0653
  0
VERTEX
  8
LAYER_1
 10
152.5313
 20
36.1001
 42
0.1172546835
  0
VERTEX
  8
LAYER_1
 10
152.5929
 20
36.1632
 42
0.1286909246
  0
VERTEX
  8
LAYER_1
 10
152.6164
 20
36.2558
 42
0.2499212344
  0
VERTEX
  8
LAYER_1
 10
152.5471
 20
36.4081
 42
0.1538083763
  0
VERTEX
  8
LAYER_1
 10
152.3511
 20
36.4584
  0
VERTEX
  8
LAYER_1
 10
152.1365
 20
36.4584
  0
SEQEND
  0
ENDBLK
  0
BLOCK
  8
LAYER_1
  2
AIGNBL01030017
 70
64
 10
0
 20
0
 30
0
  3
AIGNBL01030017
  0
POLYLINE
  8
LAYER_1
 40
0.05
 41
0.05
 66
1
 10
0
 20
0
 30
0
 70
1
  0
VERTEX
  8
LAYER_1
 10
153.1534
 20
35.9637
  0
VERTEX
  8
LAYER_1
 10
153.038
 20
35.9637
  0
VERTEX
  8
LAYER_1
 10
153.4849
 20
36.9969
  0
VERTEX
  8
LAYER_1
 10
153.5872
 20
36.9969
  0
VERTEX
  8
LAYER_1
 10
154.0306
 20
35.9637
  0
VERTEX
  8
LAYER_1
 10
153.9138
 20
35.9637
  0
VERTEX
  8
LAYER_1
 10
153.7997
 20
36.2352
  0
VERTEX
  8
LAYER_1
 10
153.2658
 20
36.2352
  0
SEQEND
  0
POLYLINE
  8
LAYER_1
 40
0.05
 41
0.05
 66
1
 10
0
 20
0
 30
0
 70
1
  0
VERTEX
  8
LAYER_1
 10
153.305
 20
36.3316
  0
VERTEX
  8
LAYER_1
 10
153.7605
 20
36.3316
  0
VERTEX
  8
LAYER_1
 10
153.5327
 20
36.8804
  0
SEQEND
  0
ENDBLK
  0
BLOCK
  8
LAYER_1
  2
AIGNBL01030018
 70
64
 10
0
 20
0
 30
0
  3
AIGNBL01030018
  0
POLYLINE
  8
LAYER_1
 40
0.05
 41
0.05
 66
1
 10
0
 20
0
 30
0
 70
1
  0
VERTEX
  8
LAYER_1
 10
154.7151
 20
35.9637
  0
VERTEX
  8
LAYER_1
 10
154.61
 20
35.9637
  0
VERTEX
  8
LAYER_1
 10
154.61
 20
36.9035
  0
VERTEX
  8
LAYER_1
 10
154.2638
 20
36.9035
  0
VERTEX
  8
LAYER_1
 10
154.2638
 20
36.9969
  0
VERTEX
  8
LAYER_1
 10
155.0606
 20
36.9969
  0
VERTEX
  8
LAYER_1
 10
155.0606
 20
36.9035
  0
VERTEX
  8
LAYER_1
 10
154.7151
 20
36.9035
  0
SEQEND
  0
ENDBLK
  0
BLOCK
  8
LAYER_1
  2
AIGNBL01030019
 70
64
 10
0
 20
0
 30
0
  3
AIGNBL01030019
  0
POLYLINE
  8
LAYER_1
 40
0.05
 41
0.05
 66
1
 10
0
 20
0
 30
0
 70
1
  0
VERTEX
  8
LAYER_1
 10
155.4169
 20
36.9969
  0
VERTEX
  8
LAYER_1
 10
155.5216
 20
36.9969
  0
VERTEX
  8
LAYER_1
 10
155.5216
 20
36.549
  0
VERTEX
  8
LAYER_1
 10
156.0852
 20
36.549
  0
VERTEX
  8
LAYER_1
 10
156.0852
 20
36.9969
  0
VERTEX
  8
LAYER_1
 10
156.1903
 20
36.9969
  0
VERTEX
  8
LAYER_1
 10
156.1903
 20
35.9637
  0
VERTEX
  8
LAYER_1
 10
156.0852
 20
35.9637
  0
VERTEX
  8
LAYER_1
 10
156.0852
 20
36.4529
  0
VERTEX
  8
LAYER_1
 10
155.5216
 20
36.4529
  0
VERTEX
  8
LAYER_1
 10
155.5216
 20
35.9637
  0
VERTEX
  8
LAYER_1
 10
155.4169
 20
35.9637
  0
SEQEND
  0
ENDBLK
  0
BLOCK
  8
LAYER_1
  2
AIGNBL0103001A
 70
64
 10
0
 20
0
 30
0
  3
AIGNBL0103001A
  0
POLYLINE
  8
LAYER_1
 40
0.05
 41
0.05
 66
1
 10
0
 20
0
 30
0
 70
1
  0
VERTEX
  8
LAYER_1
 10
156.7708
 20
35.9637
  0
VERTEX
  8
LAYER_1
 10
156.6657
 20
35.9637
  0
VERTEX
  8
LAYER_1
 10
156.6657
 20
36.9969
  0
VERTEX
  8
LAYER_1
 10
156.9696
 20
36.9969
  0
VERTEX
  8
LAYER_1
 10
157.1101
 20
36.9824
 42
-0.1032885834
  0
VERTEX
  8
LAYER_1
 10
157.2228
 20
36.9349
 42
-0.1281738609
  0
VERTEX
  8
LAYER_1
 10
157.2962
 20
36.8494
 42
-0.1081125707
  0
VERTEX
  8
LAYER_1
 10
157.3224
 20
36.7213
  0
VERTEX
  8
LAYER_1
 10
157.3024
 20
36.6176
  0
VERTEX
  8
LAYER_1
 10
157.2469
 20
36.5366
  0
VERTEX
  8
LAYER_1
 10
157.1635
 20
36.4818
  0
VERTEX
  8
LAYER_1
 10
157.0585
 20
36.4557
  0
VERTEX
  8
LAYER_1
 10
157.3606
 20
35.9637
  0
VERTEX
  8
LAYER_1
 10
157.2321
 20
35.9637
  0
VERTEX
  8
LAYER_1
 10
156.9461
 20
36.4467
  0
VERTEX
  8
LAYER_1
 10
156.7708
 20
36.4467
  0
SEQEND
  0
POLYLINE
  8
LAYER_1
 40
0.05
 41
0.05
 66
1
 10
0
 20
0
 30
0
 70
1
  0
VERTEX
  8
LAYER_1
 10
156.7708
 20
36.5373
  0
VERTEX
  8
LAYER_1
 10
156.9534
 20
36.5373
 42
0.153451873
  0
VERTEX
  8
LAYER_1
 10
157.1491
 20
36.5831
 42
0.2580279849
  0
VERTEX
  8
LAYER_1
 10
157.2176
 20
36.7213
  0
VERTEX
  8
LAYER_1
 10
157.1983
 20
36.8071
  0
VERTEX
  8
LAYER_1
 10
157.146
 20
36.8642
  0
VERTEX
  8
LAYER_1
 10
157.0643
 20
36.8963
  0
VERTEX
  8
LAYER_1
 10
156.9579
 20
36.9066
  0
VERTEX
  8
LAYER_1
 10
156.7708
 20
36.9066
  0
SEQEND
  0
ENDBLK
  0
BLOCK
  8
LAYER_1
  2
AIGNBL0103001B
 70
64
 10
0
 20
0
 30
0
  3
AIGNBL0103001B
  0
POLYLINE
  8
LAYER_1
 40
0.05
 41
0.05
 66
1
 10
0
 20
0
 30
0
 70
1
  0
VERTEX
  8
LAYER_1
 10
158.7627
 20
36.4805
 42
-0.09904480664
  0
VERTEX
  8
LAYER_1
 10
158.7221
 20
36.2631
 42
-0.0998654539
  0
VERTEX
  8
LAYER_1
 10
158.6088
 20
36.0915
 42
-0.09816046092
  0
VERTEX
  8
LAYER_1
 10
158.4382
 20
35.9785
 42
-0.09758412454
  0
VERTEX
  8
LAYER_1
 10
158.2243
 20
35.9375
 42
-0.09999517154
  0
VERTEX
  8
LAYER_1
 10
158.0103
 20
35.9785
 42
-0.09953435427
  0
VERTEX
  8
LAYER_1
 10
157.8398
 20
36.0915
 42
-0.09864299929
  0
VERTEX
  8
LAYER_1
 10
157.7268
 20
36.2631
 42
-0.09653980076
  0
VERTEX
  8
LAYER_1
 10
157.6862
 20
36.4805
 42
-0.1004594477
  0
VERTEX
  8
LAYER_1
 10
157.7268
 20
36.6978
 42
-0.1008040346
  0
VERTEX
  8
LAYER_1
 10
157.8398
 20
36.8694
 42
-0.09763764092
  0
VERTEX
  8
LAYER_1
 10
158.0103
 20
36.9824
 42
-0.09752919603
  0
VERTEX
  8
LAYER_1
 10
158.2243
 20
37.0234
 42
-0.1000174927
  0
VERTEX
  8
LAYER_1
 10
158.4382
 20
36.9824
 42
-0.1006724022
  0
VERTEX
  8
LAYER_1
 10
158.6088
 20
36.8694
 42
-0.09709867792
  0
VERTEX
  8
LAYER_1
 10
158.7221
 20
36.6978
 42
-0.09585658013
  0
SEQEND
  0
POLYLINE
  8
LAYER_1
 40
0.05
 41
0.05
 66
1
 10
0
 20
0
 30
0
 70
1
  0
VERTEX
  8
LAYER_1
 10
158.6518
 20
36.4798
 42
0.08852014676
  0
VERTEX
  8
LAYER_1
 10
158.6225
 20
36.6517
 42
0.09973444611
  0
VERTEX
  8
LAYER_1
 10
158.5378
 20
36.795
 42
0.1024799068
  0
VERTEX
  8
LAYER_1
 10
158.4031
 20
36.8932
 42
0.1060321998
  0
VERTEX
  8
LAYER_1
 10
158.2243
 20
36.93
 42
0.1116325688
  0
VERTEX
  8
LAYER_1
 10
158.0455
 20
36.8932
 42
0.1060506217
  0
VERTEX
  8
LAYER_1
 10
157.9104
 20
36.795
 42
0.09526104957
  0
VERTEX
  8
LAYER_1
 10
157.8257
 20
36.6517
 42
0.08440311357
  0
VERTEX
  8
LAYER_1
 10
157.7967
 20
36.4798
 42
0.08751084222
  0
VERTEX
  8
LAYER_1
 10
157.8257
 20
36.3079
 42
0.09826867926
  0
VERTEX
  8
LAYER_1
 10
157.9104
 20
36.1649
 42
0.09908422267
  0
VERTEX
  8
LAYER_1
 10
158.0455
 20
36.0674
 42
0.1061654103
  0
VERTEX
  8
LAYER_1
 10
158.2243
 20
36.0309
 42
0.1124388132
  0
VERTEX
  8
LAYER_1
 10
158.4031
 20
36.0674
 42
0.1028204009
  0
VERTEX
  8
LAYER_1
 10
158.5378
 20
36.1649
 42
0.09882210045
  0
VERTEX
  8
LAYER_1
 10
158.6225
 20
36.3079
 42
0.08589740831
  0
SEQEND
  0
ENDBLK
  0
BLOCK
  8
LAYER_1
  2
AIGNBL0103001C
 70
64
 10
0
 20
0
 30
0
  3
AIGNBL0103001C
  0
POLYLINE
  8
LAYER_1
 40
0.05
 41
0.05
 66
1
 10
0
 20
0
 30
0
 70
1
  0
VERTEX
  8
LAYER_1
 10
160.2045
 20
36.4805
 42
-0.1019307791
  0
VERTEX
  8
LAYER_1
 10
160.1635
 20
36.2631
 42
-0.1000344077
  0
VERTEX
  8
LAYER_1
 10
160.0509
 20
36.0915
 42
-0.09685913213
  0
VERTEX
  8
LAYER_1
 10
159.88
 20
35.9785
 42
-0.09758412454
  0
VERTEX
  8
LAYER_1
 10
159.6661
 20
35.9375
 42
-0.1006569764
  0
VERTEX
  8
LAYER_1
 10
159.4525
 20
35.9785
 42
-0.1011318925
  0
VERTEX
  8
LAYER_1
 10
159.2816
 20
36.0915
 42
-0.09735230618
  0
VERTEX
  8
LAYER_1
 10
159.1682
 20
36.2631
 42
-0.09653980076
  0
VERTEX
  8
LAYER_1
 10
159.1276
 20
36.4805
 42
-0.1004594477
  0
VERTEX
  8
LAYER_1
 10
159.1682
 20
36.6978
 42
-0.1001669327
  0
VERTEX
  8
LAYER_1
 10
159.2816
 20
36.8694
 42
-0.09867928162
  0
VERTEX
  8
LAYER_1
 10
159.4525
 20
36.9824
 42
-0.09791748865
  0
VERTEX
  8
LAYER_1
 10
159.6661
 20
37.0234
 42
-0.1000174927
  0
VERTEX
  8
LAYER_1
 10
159.88
 20
36.9824
 42
-0.0983303992
  0
VERTEX
  8
LAYER_1
 10
160.0509
 20
36.8694
 42
-0.09781653482
  0
VERTEX
  8
LAYER_1
 10
160.1635
 20
36.6978
 42
-0.09788199595
  0
SEQEND
  0
POLYLINE
  8
LAYER_1
 40
0.05
 41
0.05
 66
1
 10
0
 20
0
 30
0
 70
1
  0
VERTEX
  8
LAYER_1
 10
160.0936
 20
36.4798
 42
0.08634913196
  0
VERTEX
  8
LAYER_1
 10
160.0646
 20
36.6517
 42
0.09721101768
  0
VERTEX
  8
LAYER_1
 10
159.9799
 20
36.795
 42
0.1030853098
  0
VERTEX
  8
LAYER_1
 10
159.8449
 20
36.8932
 42
0.1060321998
  0
VERTEX
  8
LAYER_1
 10
159.6661
 20
36.93
 42
0.1116325688
  0
VERTEX
  8
LAYER_1
 10
159.4873
 20
36.8932
 42
0.1058584166
  0
VERTEX
  8
LAYER_1
 10
159.3525
 20
36.795
 42
0.09787799956
  0
VERTEX
  8
LAYER_1
 10
159.2678
 20
36.6517
 42
0.08491464556
  0
VERTEX
  8
LAYER_1
 10
159.2385
 20
36.4798
 42
0.08693146424
  0
VERTEX
  8
LAYER_1
 10
159.2678
 20
36.3079
 42
0.1009797617
  0
VERTEX
  8
LAYER_1
 10
159.3525
 20
36.1649
 42
0.09947922476
  0
VERTEX
  8
LAYER_1
 10
159.4873
 20
36.0674
 42
0.1061654103
  0
VERTEX
  8
LAYER_1
 10
159.6661
 20
36.0309
 42
0.1124388132
  0
VERTEX
  8
LAYER_1
 10
159.8449
 20
36.0674
 42
0.103362111
  0
VERTEX
  8
LAYER_1
 10
159.9799
 20
36.1649
 42
0.09450022685
  0
VERTEX
  8
LAYER_1
 10
160.0646
 20
36.3079
 42
0.08466662837
  0
SEQEND
  0
ENDBLK
  0
BLOCK
  8
LAYER_1
  2
AIGNBL0103001D
 70
64
 10
0
 20
0
 30
0
  3
AIGNBL0103001D
  0
POLYLINE
  8
LAYER_1
 40
0.05
 41
0.05
 66
1
 10
0
 20
0
 30
0
 70
1
  0
VERTEX
  8
LAYER_1
 10
161.1354
 20
36.1418
  0
VERTEX
  8
LAYER_1
 10
161.1371
 20
36.1418
  0
VERTEX
  8
LAYER_1
 10
161.4826
 20
36.9969
  0
VERTEX
  8
LAYER_1
 10
161.6435
 20
36.9969
  0
VERTEX
  8
LAYER_1
 10
161.6435
 20
35.9637
  0
VERTEX
  8
LAYER_1
 10
161.5381
 20
35.9637
  0
VERTEX
  8
LAYER_1
 10
161.5381
 20
36.8611
  0
VERTEX
  8
LAYER_1
 10
161.5354
 20
36.8611
  0
VERTEX
  8
LAYER_1
 10
161.1619
 20
35.9637
  0
VERTEX
  8
LAYER_1
 10
161.1064
 20
35.9637
  0
VERTEX
  8
LAYER_1
 10
160.7327
 20
36.8611
  0
VERTEX
  8
LAYER_1
 10
160.7299
 20
36.8611
  0
VERTEX
  8
LAYER_1
 10
160.7299
 20
35.9637
  0
VERTEX
  8
LAYER_1
 10
160.6248
 20
35.9637
  0
VERTEX
  8
LAYER_1
 10
160.6248
 20
36.9969
  0
VERTEX
  8
LAYER_1
 10
160.7854
 20
36.9969
  0
SEQEND
  0
ENDBLK
  0
BLOCK
  8
LAYER_1
  2
AIGNBL0103001E
 70
64
 10
0
 20
0
 30
0
  3
AIGNBL0103001E
  0
POLYLINE
  8
LAYER_1
 40
0.05
 41
0.05
 66
1
 10
0
 20
0
 30
0
 70
1
  0
VERTEX
  8
LAYER_1
 10
162.7901
 20
36.0574
  0
VERTEX
  8
LAYER_1
 10
163.3433
 20
36.0574
  0
VERTEX
  8
LAYER_1
 10
163.3433
 20
35.9637
  0
VERTEX
  8
LAYER_1
 10
162.685
 20
35.9637
  0
VERTEX
  8
LAYER_1
 10
162.685
 20
36.9969
  0
VERTEX
  8
LAYER_1
 10
163.3258
 20
36.9969
  0
VERTEX
  8
LAYER_1
 10
163.3258
 20
36.9035
  0
VERTEX
  8
LAYER_1
 10
162.7901
 20
36.9035
  0
VERTEX
  8
LAYER_1
 10
162.7901
 20
36.549
  0
VERTEX
  8
LAYER_1
 10
163.2906
 20
36.549
  0
VERTEX
  8
LAYER_1
 10
163.2906
 20
36.4557
  0
VERTEX
  8
LAYER_1
 10
162.7901
 20
36.4557
  0
SEQEND
  0
ENDBLK
  0
BLOCK
  8
LAYER_1
  2
AIGNBL0103001F
 70
64
 10
0
 20
0
 30
0
  3
AIGNBL0103001F
  0
POLYLINE
  8
LAYER_1
 40
0.05
 41
0.05
 66
1
 10
0
 20
0
 30
0
 70
1
  0
VERTEX
  8
LAYER_1
 10
164.0885
 20
36.5797
  0
VERTEX
  8
LAYER_1
 10
164.3707
 20
36.9969
  0
VERTEX
  8
LAYER_1
 10
164.4957
 20
36.9969
  0
VERTEX
  8
LAYER_1
 10
164.1533
 20
36.5053
  0
VERTEX
  8
LAYER_1
 10
164.5326
 20
35.9637
  0
VERTEX
  8
LAYER_1
 10
164.4013
 20
35.9637
  0
VERTEX
  8
LAYER_1
 10
164.0858
 20
36.4295
  0
VERTEX
  8
LAYER_1
 10
163.7723
 20
35.9637
  0
VERTEX
  8
LAYER_1
 10
163.6407
 20
35.9637
  0
VERTEX
  8
LAYER_1
 10
164.0203
 20
36.5066
  0
VERTEX
  8
LAYER_1
 10
163.6744
 20
36.9969
  0
VERTEX
  8
LAYER_1
 10
163.806
 20
36.9969
  0
SEQEND
  0
ENDBLK
  0
BLOCK
  8
LAYER_1
  2
AIGNBL01030020
 70
64
 10
0
 20
0
 30
0
  3
AIGNBL01030020
  0
POLYLINE
  8
LAYER_1
 40
0.05
 41
0.05
 66
1
 10
0
 20
0
 30
0
 70
1
  0
VERTEX
  8
LAYER_1
 10
164.8988
 20
36.9969
  0
VERTEX
  8
LAYER_1
 10
165.191
 20
36.9969
  0
VERTEX
  8
LAYER_1
 10
165.3339
 20
36.9803
 42
-0.104442724
  0
VERTEX
  8
LAYER_1
 10
165.4438
 20
36.929
 42
-0.1219459081
  0
VERTEX
  8
LAYER_1
 10
165.5148
 20
36.8429
 42
-0.1032545831
  0
VERTEX
  8
LAYER_1
 10
165.5392
 20
36.7213
 42
-0.1239274235
  0
VERTEX
  8
LAYER_1
 10
165.5141
 20
36.5993
 42
-0.1163667494
  0
VERTEX
  8
LAYER_1
 10
165.4424
 20
36.5132
 42
-0.08715194998
  0
VERTEX
  8
LAYER_1
 10
165.3315
 20
36.4615
 42
-0.06108707382
  0
VERTEX
  8
LAYER_1
 10
165.1878
 20
36.4439
  0
VERTEX
  8
LAYER_1
 10
165.0039
 20
36.4439
  0
VERTEX
  8
LAYER_1
 10
165.0039
 20
35.9637
  0
VERTEX
  8
LAYER_1
 10
164.8988
 20
35.9637
  0
SEQEND
  0
POLYLINE
  8
LAYER_1
 40
0.05
 41
0.05
 66
1
 10
0
 20
0
 30
0
 70
1
  0
VERTEX
  8
LAYER_1
 10
165.0039
 20
36.5328
  0
VERTEX
  8
LAYER_1
 10
165.1816
 20
36.5328
 42
0.1698628217
  0
VERTEX
  8
LAYER_1
 10
165.3701
 20
36.5811
 42
0.2445965084
  0
VERTEX
  8
LAYER_1
 10
165.4345
 20
36.7213
 42
0.2593003012
  0
VERTEX
  8
LAYER_1
 10
165.368
 20
36.8622
 42
0.143072224
  0
VERTEX
  8
LAYER_1
 10
165.1816
 20
36.9066
  0
VERTEX
  8
LAYER_1
 10
165.0039
 20
36.9066
  0
SEQEND
  0
ENDBLK
  0
BLOCK
  8
LAYER_1
  2
AIGNBL01030021
 70
64
 10
0
 20
0
 30
0
  3
AIGNBL01030021
  0
POLYLINE
  8
LAYER_1
 40
0.05
 41
0.05
 66
1
 10
0
 20
0
 30
0
 70
1
  0
VERTEX
  8
LAYER_1
 10
166.0515
 20
36.0574
  0
VERTEX
  8
LAYER_1
 10
166.6048
 20
36.0574
  0
VERTEX
  8
LAYER_1
 10
166.6048
 20
35.9637
  0
VERTEX
  8
LAYER_1
 10
165.9465
 20
35.9637
  0
VERTEX
  8
LAYER_1
 10
165.9465
 20
36.9969
  0
VERTEX
  8
LAYER_1
 10
166.5872
 20
36.9969
  0
VERTEX
  8
LAYER_1
 10
166.5872
 20
36.9035
  0
VERTEX
  8
LAYER_1
 10
166.0515
 20
36.9035
  0
VERTEX
  8
LAYER_1
 10
166.0515
 20
36.549
  0
VERTEX
  8
LAYER_1
 10
166.5521
 20
36.549
  0
VERTEX
  8
LAYER_1
 10
166.5521
 20
36.4557
  0
VERTEX
  8
LAYER_1
 10
166.0515
 20
36.4557
  0
SEQEND
  0
ENDBLK
  0
BLOCK
  8
LAYER_1
  2
AIGNBL01030022
 70
64
 10
0
 20
0
 30
0
  3
AIGNBL01030022
  0
POLYLINE
  8
LAYER_1
 40
0.05
 41
0.05
 66
1
 10
0
 20
0
 30
0
 70
1
  0
VERTEX
  8
LAYER_1
 10
167.1168
 20
35.9637
  0
VERTEX
  8
LAYER_1
 10
167.0117
 20
35.9637
  0
VERTEX
  8
LAYER_1
 10
167.0117
 20
36.9969
  0
VERTEX
  8
LAYER_1
 10
167.3155
 20
36.9969
  0
VERTEX
  8
LAYER_1
 10
167.4561
 20
36.9824
 42
-0.1033890198
  0
VERTEX
  8
LAYER_1
 10
167.5688
 20
36.9349
 42
-0.1259996581
  0
VERTEX
  8
LAYER_1
 10
167.6425
 20
36.8494
 42
-0.1064650891
  0
VERTEX
  8
LAYER_1
 10
167.6683
 20
36.7213
  0
VERTEX
  8
LAYER_1
 10
167.6483
 20
36.6176
  0
VERTEX
  8
LAYER_1
 10
167.5929
 20
36.5366
  0
VERTEX
  8
LAYER_1
 10
167.5095
 20
36.4818
  0
VERTEX
  8
LAYER_1
 10
167.4044
 20
36.4557
  0
VERTEX
  8
LAYER_1
 10
167.7066
 20
35.9637
  0
VERTEX
  8
LAYER_1
 10
167.5781
 20
35.9637
  0
VERTEX
  8
LAYER_1
 10
167.2921
 20
36.4467
  0
VERTEX
  8
LAYER_1
 10
167.1168
 20
36.4467
  0
SEQEND
  0
POLYLINE
  8
LAYER_1
 40
0.05
 41
0.05
 66
1
 10
0
 20
0
 30
0
 70
1
  0
VERTEX
  8
LAYER_1
 10
167.1168
 20
36.5373
  0
VERTEX
  8
LAYER_1
 10
167.2993
 20
36.5373
 42
0.1542719415
  0
VERTEX
  8
LAYER_1
 10
167.495
 20
36.5831
 42
0.2583775622
  0
VERTEX
  8
LAYER_1
 10
167.5636
 20
36.7213
  0
VERTEX
  8
LAYER_1
 10
167.5446
 20
36.8071
  0
VERTEX
  8
LAYER_1
 10
167.4919
 20
36.8642
  0
VERTEX
  8
LAYER_1
 10
167.4103
 20
36.8963
  0
VERTEX
  8
LAYER_1
 10
167.3038
 20
36.9066
  0
VERTEX
  8
LAYER_1
 10
167.1168
 20
36.9066
  0
SEQEND
  0
ENDBLK
  0
BLOCK
  8
LAYER_1
  2
AIGNBL01030023
 70
64
 10
0
 20
0
 30
0
  3
AIGNBL01030023
  0
POLYLINE
  8
LAYER_1
 40
0.05
 41
0.05
 66
1
 10
0
 20
0
 30
0
 70
1
  0
VERTEX
  8
LAYER_1
 10
168.1923
 20
35.9637
  0
VERTEX
  8
LAYER_1
 10
168.0876
 20
35.9637
  0
VERTEX
  8
LAYER_1
 10
168.0876
 20
36.9969
  0
VERTEX
  8
LAYER_1
 10
168.1923
 20
36.9969
  0
SEQEND
  0
ENDBLK
  0
BLOCK
  8
LAYER_1
  2
AIGNBL01030024
 70
64
 10
0
 20
0
 30
0
  3
AIGNBL01030024
  0
POLYLINE
  8
LAYER_1
 40
0.05
 41
0.05
 66
1
 10
0
 20
0
 30
0
 70
1
  0
VERTEX
  8
LAYER_1
 10
168.7732
 20
36.0574
  0
VERTEX
  8
LAYER_1
 10
169.3261
 20
36.0574
  0
VERTEX
  8
LAYER_1
 10
169.3261
 20
35.9637
  0
VERTEX
  8
LAYER_1
 10
168.6681
 20
35.9637
  0
VERTEX
  8
LAYER_1
 10
168.6681
 20
36.9969
  0
VERTEX
  8
LAYER_1
 10
169.3089
 20
36.9969
  0
VERTEX
  8
LAYER_1
 10
169.3089
 20
36.9035
  0
VERTEX
  8
LAYER_1
 10
168.7732
 20
36.9035
  0
VERTEX
  8
LAYER_1
 10
168.7732
 20
36.549
  0
VERTEX
  8
LAYER_1
 10
169.2737
 20
36.549
  0
VERTEX
  8
LAYER_1
 10
169.2737
 20
36.4557
  0
VERTEX
  8
LAYER_1
 10
168.7732
 20
36.4557
  0
SEQEND
  0
ENDBLK
  0
BLOCK
  8
LAYER_1
  2
AIGNBL01030025
 70
64
 10
0
 20
0
 30
0
  3
AIGNBL01030025
  0
POLYLINE
  8
LAYER_1
 40
0.05
 41
0.05
 66
1
 10
0
 20
0
 30
0
 70
1
  0
VERTEX
  8
LAYER_1
 10
170.4661
 20
36.117
  0
VERTEX
  8
LAYER_1
 10
170.4688
 20
36.117
  0
VERTEX
  8
LAYER_1
 10
170.4688
 20
36.9969
  0
VERTEX
  8
LAYER_1
 10
170.5739
 20
36.9969
  0
VERTEX
  8
LAYER_1
 10
170.5739
 20
35.9637
  0
VERTEX
  8
LAYER_1
 10
170.4427
 20
35.9637
  0
VERTEX
  8
LAYER_1
 10
169.8415
 20
36.8525
  0
VERTEX
  8
LAYER_1
 10
169.8384
 20
36.8525
  0
VERTEX
  8
LAYER_1
 10
169.8384
 20
35.9637
  0
VERTEX
  8
LAYER_1
 10
169.7333
 20
35.9637
  0
VERTEX
  8
LAYER_1
 10
169.7333
 20
36.9969
  0
VERTEX
  8
LAYER_1
 10
169.8649
 20
36.9969
  0
SEQEND
  0
ENDBLK
  0
BLOCK
  8
LAYER_1
  2
AIGNBL01030026
 70
64
 10
0
 20
0
 30
0
  3
AIGNBL01030026
  0
POLYLINE
  8
LAYER_1
 40
0.05
 41
0.05
 66
1
 10
0
 20
0
 30
0
 70
1
  0
VERTEX
  8
LAYER_1
 10
171.9196
 20
36.1315
  0
VERTEX
  8
LAYER_1
 10
171.8558
 20
36.0571
  0
VERTEX
  8
LAYER_1
 10
171.7697
 20
35.9954
  0
VERTEX
  8
LAYER_1
 10
171.6615
 20
35.953
  0
VERTEX
  8
LAYER_1
 10
171.5327
 20
35.9375
 42
-0.0997799169
  0
VERTEX
  8
LAYER_1
 10
171.3167
 20
35.9785
 42
-0.102530266
  0
VERTEX
  8
LAYER_1
 10
171.1461
 20
36.0915
 42
-0.1000387679
  0
VERTEX
  8
LAYER_1
 10
171.0345
 20
36.2631
 42
-0.09630702324
  0
VERTEX
  8
LAYER_1
 10
170.9942
 20
36.4805
 42
-0.1019529564
  0
VERTEX
  8
LAYER_1
 10
171.0352
 20
36.6978
 42
-0.09989904409
  0
VERTEX
  8
LAYER_1
 10
171.1479
 20
36.8694
 42
-0.09705342834
  0
VERTEX
  8
LAYER_1
 10
171.3187
 20
36.9824
 42
-0.09752919603
  0
VERTEX
  8
LAYER_1
 10
171.5327
 20
37.0234
  0
VERTEX
  8
LAYER_1
 10
171.6443
 20
37.0113
  0
VERTEX
  8
LAYER_1
 10
171.7473
 20
36.9779
  0
VERTEX
  8
LAYER_1
 10
171.8348
 20
36.9263
  0
VERTEX
  8
LAYER_1
 10
171.9006
 20
36.8584
  0
VERTEX
  8
LAYER_1
 10
171.8131
 20
36.794
  0
VERTEX
  8
LAYER_1
 10
171.7697
 20
36.8439
  0
VERTEX
  8
LAYER_1
 10
171.7063
 20
36.8877
  0
VERTEX
  8
LAYER_1
 10
171.6267
 20
36.9183
  0
VERTEX
  8
LAYER_1
 10
171.5341
 20
36.93
 42
0.1106055686
  0
VERTEX
  8
LAYER_1
 10
171.3539
 20
36.8935
 42
0.1040964846
  0
VERTEX
  8
LAYER_1
 10
171.2188
 20
36.7953
 42
0.09554708239
  0
VERTEX
  8
LAYER_1
 10
171.1341
 20
36.652
 42
0.08465136707
  0
VERTEX
  8
LAYER_1
 10
171.1051
 20
36.4805
 42
0.09018441759
  0
VERTEX
  8
LAYER_1
 10
171.1351
 20
36.3089
 42
0.09834905538
  0
VERTEX
  8
LAYER_1
 10
171.2206
 20
36.1656
 42
0.1037153981
  0
VERTEX
  8
LAYER_1
 10
171.3556
 20
36.0674
 42
0.1064777274
  0
VERTEX
  8
LAYER_1
 10
171.5341
 20
36.0309
 42
0.1093190709
  0
VERTEX
  8
LAYER_1
 10
171.7032
 20
36.0674
 42
0.1366622766
  0
VERTEX
  8
LAYER_1
 10
171.8376
 20
36.1842
  0
SEQEND
  0
ENDBLK
  0
BLOCK
  8
LAYER_1
  2
AIGNBL01030027
 70
64
 10
0
 20
0
 30
0
  3
AIGNBL01030027
  0
POLYLINE
  8
LAYER_1
 40
0.05
 41
0.05
 66
1
 10
0
 20
0
 30
0
 70
1
  0
VERTEX
  8
LAYER_1
 10
172.4067
 20
36.0574
  0
VERTEX
  8
LAYER_1
 10
172.96
 20
36.0574
  0
VERTEX
  8
LAYER_1
 10
172.96
 20
35.9637
  0
VERTEX
  8
LAYER_1
 10
172.3016
 20
35.9637
  0
VERTEX
  8
LAYER_1
 10
172.3016
 20
36.9969
  0
VERTEX
  8
LAYER_1
 10
172.9424
 20
36.9969
  0
VERTEX
  8
LAYER_1
 10
172.9424
 20
36.9035
  0
VERTEX
  8
LAYER_1
 10
172.4067
 20
36.9035
  0
VERTEX
  8
LAYER_1
 10
172.4067
 20
36.549
  0
VERTEX
  8
LAYER_1
 10
172.9073
 20
36.549
  0
VERTEX
  8
LAYER_1
 10
172.9073
 20
36.4557
  0
VERTEX
  8
LAYER_1
 10
172.4067
 20
36.4557
  0
SEQEND
  0
ENDBLK
  0
BLOCK
  8
LAYER_1
  2
AIGNBL01020004
 70
64
 10
0
 20
0
 30
0
  3
AIGNBL01020004
  0
POLYLINE
  8
LAYER_1
 40
0.05
 41
0.05
 66
1
 10
0
 20
0
 30
0
  0
VERTEX
  8
LAYER_1
 10
-1.196
 20
217.6012
 42
-0.04245719054
  0
VERTEX
  8
LAYER_1
 10
-1.2437
 20
216.7495
 42
-0.1145799327
  0
VERTEX
  8
LAYER_1
 10
-1.4854
 20
216.1042
 42
-0.03657724702
  0
VERTEX
  8
LAYER_1
 10
-1.5732
 20
216.0054
 42
-0.1577844027
  0
VERTEX
  8
LAYER_1
 10
-2.1025
 20
215.7362
 42
-0.04286355862
  0
VERTEX
  8
LAYER_1
 10
-2.3408
 20
215.7164
 42
-0.1461347274
  0
VERTEX
  8
LAYER_1
 10
-2.9525
 20
215.8874
 42
-0.04825720136
  0
VERTEX
  8
LAYER_1
 10
-3.0956
 20
216.0054
 42
-0.1514389093
  0
VERTEX
  8
LAYER_1
 10
-3.3903
 20
216.5711
 42
-0.04033585951
  0
VERTEX
  8
LAYER_1
 10
-3.4563
 20
217.0249
 42
-0.01781626242
  0
VERTEX
  8
LAYER_1
 10
-3.4732
 20
217.6012
 42
-0.04130006014
  0
VERTEX
  8
LAYER_1
 10
-3.4273
 20
218.4296
 42
-0.1151149684
  0
VERTEX
  8
LAYER_1
 10
-3.1834
 20
219.0859
 42
-0.03654153753
  0
VERTEX
  8
LAYER_1
 10
-3.0956
 20
219.1846
 42
-0.2075936136
  0
VERTEX
  8
LAYER_1
 10
-2.3408
 20
219.4733
 42
-0.1450929454
  0
VERTEX
  8
LAYER_1
 10
-1.7165
 20
219.3023
 42
-0.04835174358
  0
VERTEX
  8
LAYER_1
 10
-1.5732
 20
219.1846
 42
-0.1513451311
  0
VERTEX
  8
LAYER_1
 10
-1.2787
 20
218.6202
 42
-0.04039310281
  0
VERTEX
  8
LAYER_1
 10
-1.2128
 20
218.1697
 42
-0.01794217025
  0
VERTEX
  8
LAYER_1
 10
-1.196
 20
217.6012
  0
SEQEND
  0
POLYLINE
  8
LAYER_1
 40
0.05
 41
0.05
 66
1
 10
0
 20
0
 30
0
  0
VERTEX
  8
LAYER_1
 10
0.4394
 20
217.6012
 42
0.03175065208
  0
VERTEX
  8
LAYER_1
 10
0.3919
 20
218.5427
 42
0.07858555415
  0
VERTEX
  8
LAYER_1
 10
0.123
 20
219.5272
 42
0.07786217308
  0
VERTEX
  8
LAYER_1
 10
-0.303
 20
220.1395
 42
0.1422741765
  0
VERTEX
  8
LAYER_1
 10
-1.5044
 20
220.8409
 42
0.06575783118
  0
VERTEX
  8
LAYER_1
 10
-2.3408
 20
220.9436
 42
0.08626276489
  0
VERTEX
  8
LAYER_1
 10
-3.3995
 20
220.7669
 42
0.1130938839
  0
VERTEX
  8
LAYER_1
 10
-4.3661
 20
220.1395
 42
0.09874851938
  0
VERTEX
  8
LAYER_1
 10
-4.8748
 20
219.3361
 42
0.04046642204
  0
VERTEX
  8
LAYER_1
 10
-5.006
 20
218.8809
 42
0.03221243423
  0
VERTEX
  8
LAYER_1
 10
-5.0854
 20
218.2915
 42
0.01857787638
  0
VERTEX
  8
LAYER_1
 10
-5.1082
 20
217.6012
 42
0.0314952959
  0
VERTEX
  8
LAYER_1
 10
-5.0608
 20
216.6571
 42
0.07798081448
  0
VERTEX
  8
LAYER_1
 10
-4.7922
 20
215.6655
 42
0.07854437857
  0
VERTEX
  8
LAYER_1
 10
-4.3661
 20
215.0504
 42
0.1827570447
  0
VERTEX
  8
LAYER_1
 10
-2.668
 20
214.2614
 42
0.02310613048
  0
VERTEX
  8
LAYER_1
 10
-2.3408
 20
214.2464
 42
0.08562149542
  0
VERTEX
  8
LAYER_1
 10
-1.2772
 20
214.4231
 42
0.11295963
  0
VERTEX
  8
LAYER_1
 10
-0.303
 20
215.0504
 42
0.1497181056
  0
VERTEX
  8
LAYER_1
 10
0.3325
 20
216.2722
 42
0.03273812963
  0
VERTEX
  8
LAYER_1
 10
0.4143
 20
216.8609
 42
0.01955851524
  0
VERTEX
  8
LAYER_1
 10
0.4394
 20
217.6012
  0
SEQEND
  0
POLYLINE
  8
LAYER_1
 40
0.05
 41
0.05
 66
1
 10
0
 20
0
 30
0
  0
VERTEX
  8
LAYER_1
 10
-11.3166
 20
218.2044
  0
VERTEX
  8
LAYER_1
 10
-13.8074
 20
218.2044
 42
-0.1126267973
  0
VERTEX
  8
LAYER_1
 10
-13.6562
 20
218.9079
 42
-0.1394755972
  0
VERTEX
  8
LAYER_1
 10
-13.2507
 20
219.3934
 42
-0.1317755903
  0
VERTEX
  8
LAYER_1
 10
-12.676
 20
219.5824
 42
-0.01996342929
  0
VERTEX
  8
LAYER_1
 10
-12.562
 20
219.5866
 42
-0.137467943
  0
VERTEX
  8
LAYER_1
 10
-11.8991
 20
219.4101
 42
-0.150691583
  0
VERTEX
  8
LAYER_1
 10
-11.4672
 20
218.9079
 42
-0.1174358853
  0
VERTEX
  8
LAYER_1
 10
-11.3166
 20
218.2044
  0
SEQEND
  0
POLYLINE
  8
LAYER_1
 40
0.05
 41
0.05
 66
1
 10
0
 20
0
 30
0
 70
1
  0
VERTEX
  8
LAYER_1
 10
-9.7064
 20
217.0861
  0
VERTEX
  8
LAYER_1
 10
-9.7064
 20
217.7772
 42
0.07162688635
  0
VERTEX
  8
LAYER_1
 10
-9.8733
 20
218.9838
 42
0.08028639799
  0
VERTEX
  8
LAYER_1
 10
-10.2989
 20
219.866
 42
0.08656554483
  0
VERTEX
  8
LAYER_1
 10
-10.9135
 20
220.4722
 42
0.08455920349
  0
VERTEX
  8
LAYER_1
 10
-11.6929
 20
220.8316
 42
0.0690272402
  0
VERTEX
  8
LAYER_1
 10
-12.562
 20
220.9436
 42
0.08516353756
  0
VERTEX
  8
LAYER_1
 10
-13.5923
 20
220.7733
 42
0.2152031234
  0
VERTEX
  8
LAYER_1
 10
-15.1128
 20
219.2869
 42
0.07250104967
  0
VERTEX
  8
LAYER_1
 10
-15.3825
 20
218.2229
 42
0.02934729607
  0
VERTEX
  8
LAYER_1
 10
-15.4177
 20
217.6012
 42
0.06683108421
  0
VERTEX
  8
LAYER_1
 10
-15.2459
 20
216.2162
 42
0.08313278328
  0
VERTEX
  8
LAYER_1
 10
-14.8229
 20
215.3116
 42
0.1842921907
  0
VERTEX
  8
LAYER_1
 10
-13.3775
 20
214.3604
 42
0.06412633437
  0
VERTEX
  8
LAYER_1
 10
-12.386
 20
214.2464
 42
0.07682422262
  0
VERTEX
  8
LAYER_1
 10
-11.1942
 20
214.4123
 42
0.08470351081
  0
VERTEX
  8
LAYER_1
 10
-10.383
 20
214.8416
 42
0.03764758722
  0
VERTEX
  8
LAYER_1
 10
-9.8948
 20
215.2768
  0
VERTEX
  8
LAYER_1
 10
-10.8887
 20
216.2442
 42
-0.1072414833
  0
VERTEX
  8
LAYER_1
 10
-11.6397
 20
215.7366
 42
-0.09138316631
  0
VERTEX
  8
LAYER_1
 10
-12.3732
 20
215.6285
 42
-0.1206829104
  0
VERTEX
  8
LAYER_1
 10
-13.1336
 20
215.8026
 42
-0.1906913474
  0
VERTEX
  8
LAYER_1
 10
-13.7142
 20
216.4979
 42
-0.08636576904
  0
VERTEX
  8
LAYER_1
 10
-13.8074
 20
217.0861
  0
SEQEND
  0
POLYLINE
  8
LAYER_1
 40
0.05
 41
0.05
 66
1
 10
0
 20
0
 30
0
 70
1
  0
VERTEX
  8
LAYER_1
 10
-16.9018
 20
223.2773
  0
VERTEX
  8
LAYER_1
 10
-18.5517
 20
223.2773
  0
VERTEX
  8
LAYER_1
 10
-18.5517
 20
221.9455
  0
VERTEX
  8
LAYER_1
 10
-16.9018
 20
221.9455
  0
SEQEND
  0
POLYLINE
  8
LAYER_1
 40
0.05
 41
0.05
 66
1
 10
0
 20
0
 30
0
 70
1
  0
VERTEX
  8
LAYER_1
 10
-16.9146
 20
220.79
  0
VERTEX
  8
LAYER_1
 10
-18.5499
 20
220.79
  0
VERTEX
  8
LAYER_1
 10
-18.5499
 20
214.3218
  0
VERTEX
  8
LAYER_1
 10
-16.9146
 20
214.3218
  0
SEQEND
  0
POLYLINE
  8
LAYER_1
 40
0.05
 41
0.05
 66
1
 10
0
 20
0
 30
0
  0
VERTEX
  8
LAYER_1
 10
-19.8205
 20
215.1386
  0
VERTEX
  8
LAYER_1
 10
-20.9274
 20
216.2318
 42
-0.124077159
  0
VERTEX
  8
LAYER_1
 10
-21.5761
 20
215.7751
 42
-0.08032586337
  0
VERTEX
  8
LAYER_1
 10
-21.984
 20
215.7164
 42
-0.1386946894
  0
VERTEX
  8
LAYER_1
 10
-22.625
 20
215.8856
 42
-0.08219094685
  0
VERTEX
  8
LAYER_1
 10
-22.9149
 20
216.1436
 42
-0.1253393202
  0
VERTEX
  8
LAYER_1
 10
-23.215
 20
216.8347
 42
-0.05211869655
  0
VERTEX
  8
LAYER_1
 10
-23.2797
 20
217.6012
 42
-0.0435450793
  0
VERTEX
  8
LAYER_1
 10
-23.2306
 20
218.2793
 42
-0.1072750387
  0
VERTEX
  8
LAYER_1
 10
-22.9604
 20
218.9857
 42
-0.01439054395
  0
VERTEX
  8
LAYER_1
 10
-22.9149
 20
219.0461
 42
-0.143045989
  0
VERTEX
  8
LAYER_1
 10
-22.387
 20
219.4143
 42
-0.07949646803
  0
VERTEX
  8
LAYER_1
 10
-21.984
 20
219.4733
 42
-0.1421227284
  0
VERTEX
  8
LAYER_1
 10
-21.3214
 20
219.2962
 42
-0.06971561642
  0
VERTEX
  8
LAYER_1
 10
-20.9274
 20
218.9586
  0
VERTEX
  8
LAYER_1
 10
-19.8205
 20
220.0637
 42
0.08882909472
  0
VERTEX
  8
LAYER_1
 10
-20.632
 20
220.6645
 42
0.08605806955
  0
VERTEX
  8
LAYER_1
 10
-21.5364
 20
220.9189
 42
0.02865290108
  0
VERTEX
  8
LAYER_1
 10
-21.984
 20
220.9436
 42
0.0806713287
  0
VERTEX
  8
LAYER_1
 10
-23.0569
 20
220.7735
 42
0.08357777431
  0
VERTEX
  8
LAYER_1
 10
-23.8317
 20
220.3573
 42
0.09024198391
  0
VERTEX
  8
LAYER_1
 10
-24.4186
 20
219.692
 42
0.07835989587
  0
VERTEX
  8
LAYER_1
 10
-24.7811
 20
218.801
 42
0.06322906838
  0
VERTEX
  8
LAYER_1
 10
-24.9151
 20
217.6012
 42
0.06782520219
  0
VERTEX
  8
LAYER_1
 10
-24.7438
 20
216.2613
 42
0.08255819328
  0
VERTEX
  8
LAYER_1
 10
-24.3104
 20
215.3428
 42
0.1768050018
  0
VERTEX
  8
LAYER_1
 10
-22.8675
 20
214.3604
 42
0.06691738143
  0
VERTEX
  8
LAYER_1
 10
-21.984
 20
214.2464
 42
0.08460493823
  0
VERTEX
  8
LAYER_1
 10
-20.8976
 20
214.4205
 42
0.08609823032
  0
VERTEX
  8
LAYER_1
 10
-20.1139
 20
214.8669
 42
0.0305516797
  0
VERTEX
  8
LAYER_1
 10
-19.8205
 20
215.1386
  0
SEQEND
  0
ENDBLK
  0
BLOCK
  8
LAYER_1
  2
AIGNBL01020005
 70
64
 10
0
 20
0
 30
0
  3
AIGNBL01020005
  0
POLYLINE
  8
LAYER_1
 40
0.05
 41
0.05
 66
1
 10
0
 20
0
 30
0
 70
1
  0
VERTEX
  8
LAYER_1
 10
0.3288
 20
212.6806
  0
VERTEX
  8
LAYER_1
 10
0.0009
 20
212.6806
  0
VERTEX
  8
LAYER_1
 10
-0.2479
 20
211.9109
  0
VERTEX
  8
LAYER_1
 10
-0.5066
 20
212.6806
  0
VERTEX
  8
LAYER_1
 10
-0.8342
 20
212.6806
  0
VERTEX
  8
LAYER_1
 10
-0.4084
 20
211.5234
  0
VERTEX
  8
LAYER_1
 10
-0.4611
 20
211.3704
 42
-0.3961336399
  0
VERTEX
  8
LAYER_1
 10
-0.6165
 20
211.2581
  0
VERTEX
  8
LAYER_1
 10
-0.6882
 20
211.2581
  0
VERTEX
  8
LAYER_1
 10
-0.6882
 20
210.9783
  0
VERTEX
  8
LAYER_1
 10
-0.5662
 20
210.9783
 42
0.2034440672
  0
VERTEX
  8
LAYER_1
 10
-0.2985
 20
211.0741
 42
0.1004639661
  0
VERTEX
  8
LAYER_1
 10
-0.2048
 20
211.2343
  0
SEQEND
  0
POLYLINE
  8
LAYER_1
 40
0.05
 41
0.05
 66
1
 10
0
 20
0
 30
0
 70
1
  0
VERTEX
  8
LAYER_1
 10
-0.8704
 20
211.4352
  0
VERTEX
  8
LAYER_1
 10
-0.8704
 20
211.6977
  0
VERTEX
  8
LAYER_1
 10
-0.9899
 20
211.6977
 42
-0.4751531158
  0
VERTEX
  8
LAYER_1
 10
-1.0998
 20
211.8103
  0
VERTEX
  8
LAYER_1
 10
-1.0998
 20
213.137
  0
VERTEX
  8
LAYER_1
 10
-1.4109
 20
213.137
  0
VERTEX
  8
LAYER_1
 10
-1.4109
 20
211.7914
 42
0.2572712742
  0
VERTEX
  8
LAYER_1
 10
-1.2491
 20
211.4844
 42
0.1351549622
  0
VERTEX
  8
LAYER_1
 10
-1.0475
 20
211.4352
  0
SEQEND
  0
POLYLINE
  8
LAYER_1
 40
0.05
 41
0.05
 66
1
 10
0
 20
0
 30
0
 70
1
  0
VERTEX
  8
LAYER_1
 10
-1.9739
 20
211.894
 42
-0.2469446344
  0
VERTEX
  8
LAYER_1
 10
-2.0214
 20
211.7363
 42
-0.2123665607
  0
VERTEX
  8
LAYER_1
 10
-2.2057
 20
211.6763
 42
-0.2053891319
  0
VERTEX
  8
LAYER_1
 10
-2.3584
 20
211.7231
 42
-0.2060051203
  0
VERTEX
  8
LAYER_1
 10
-2.3949
 20
211.8176
 42
-0.4725599787
  0
VERTEX
  8
LAYER_1
 10
-2.2105
 20
211.9609
  0
VERTEX
  8
LAYER_1
 10
-1.9739
 20
211.9609
  0
SEQEND
  0
POLYLINE
  8
LAYER_1
 40
0.05
 41
0.05
 66
1
 10
0
 20
0
 30
0
 70
1
  0
VERTEX
  8
LAYER_1
 10
-1.6624
 20
211.4352
  0
VERTEX
  8
LAYER_1
 10
-1.6624
 20
212.2551
 42
0.2451162416
  0
VERTEX
  8
LAYER_1
 10
-1.8225
 20
212.6039
 42
0.1630344424
  0
VERTEX
  8
LAYER_1
 10
-2.194
 20
212.6947
 42
0.223003002
  0
VERTEX
  8
LAYER_1
 10
-2.6298
 20
212.5302
 42
0.006267388191
  0
VERTEX
  8
LAYER_1
 10
-2.6412
 20
212.5179
  0
VERTEX
  8
LAYER_1
 10
-2.4452
 20
212.3243
 42
-0.2474228759
  0
VERTEX
  8
LAYER_1
 10
-2.2057
 20
212.4322
 42
-0.1875116517
  0
VERTEX
  8
LAYER_1
 10
-2.0297
 20
212.3865
 42
-0.2385471677
  0
VERTEX
  8
LAYER_1
 10
-1.9739
 20
212.2358
  0
VERTEX
  8
LAYER_1
 10
-1.9739
 20
212.1738
  0
VERTEX
  8
LAYER_1
 10
-2.2633
 20
212.1738
 42
0.2343493414
  0
VERTEX
  8
LAYER_1
 10
-2.6354
 20
212.0142
 42
0.1534284984
  0
VERTEX
  8
LAYER_1
 10
-2.6942
 20
211.8127
 42
0.1895201048
  0
VERTEX
  8
LAYER_1
 10
-2.5912
 20
211.533
 42
0.2074502918
  0
VERTEX
  8
LAYER_1
 10
-2.2729
 20
211.4228
 42
0.2214267061
  0
VERTEX
  8
LAYER_1
 10
-1.9663
 20
211.5426
  0
VERTEX
  8
LAYER_1
 10
-1.9663
 20
211.4352
  0
SEQEND
  0
POLYLINE
  8
LAYER_1
 40
0.05
 41
0.05
 66
1
 10
0
 20
0
 30
0
 70
1
  0
VERTEX
  8
LAYER_1
 10
-2.8758
 20
211.4352
  0
VERTEX
  8
LAYER_1
 10
-2.8758
 20
211.6977
  0
VERTEX
  8
LAYER_1
 10
-2.9884
 20
211.6977
 42
-0.4616084329
  0
VERTEX
  8
LAYER_1
 10
-3.0963
 20
211.8103
  0
VERTEX
  8
LAYER_1
 10
-3.0963
 20
212.4081
  0
VERTEX
  8
LAYER_1
 10
-2.8758
 20
212.4081
  0
VERTEX
  8
LAYER_1
 10
-2.8758
 20
212.6444
  0
VERTEX
  8
LAYER_1
 10
-3.0963
 20
212.6444
  0
VERTEX
  8
LAYER_1
 10
-3.0963
 20
213.0127
  0
VERTEX
  8
LAYER_1
 10
-3.407
 20
213.0127
  0
VERTEX
  8
LAYER_1
 10
-3.407
 20
212.6444
  0
VERTEX
  8
LAYER_1
 10
-3.539
 20
212.6444
  0
VERTEX
  8
LAYER_1
 10
-3.539
 20
212.4081
  0
VERTEX
  8
LAYER_1
 10
-3.407
 20
212.4081
  0
VERTEX
  8
LAYER_1
 10
-3.407
 20
211.7914
 42
0.2563568817
  0
VERTEX
  8
LAYER_1
 10
-3.2458
 20
211.4844
 42
0.1357760723
  0
VERTEX
  8
LAYER_1
 10
-3.0456
 20
211.4352
  0
SEQEND
  0
POLYLINE
  8
LAYER_1
 40
0.05
 41
0.05
 66
1
 10
0
 20
0
 30
0
 70
1
  0
VERTEX
  8
LAYER_1
 10
-3.8091
 20
213.137
  0
VERTEX
  8
LAYER_1
 10
-4.1419
 20
213.137
  0
VERTEX
  8
LAYER_1
 10
-4.1419
 20
211.4352
  0
VERTEX
  8
LAYER_1
 10
-3.8091
 20
211.4352
  0
SEQEND
  0
POLYLINE
  8
LAYER_1
 40
0.05
 41
0.05
 66
1
 10
0
 20
0
 30
0
 70
1
  0
VERTEX
  8
LAYER_1
 10
-5.0562
 20
211.4352
  0
VERTEX
  8
LAYER_1
 10
-5.0562
 20
212.231
 42
0.2072987281
  0
VERTEX
  8
LAYER_1
 10
-5.183
 20
212.5844
 42
0.2031043538
  0
VERTEX
  8
LAYER_1
 10
-5.4775
 20
212.6947
 42
0.201378382
  0
VERTEX
  8
LAYER_1
 10
-5.7886
 20
212.5658
  0
VERTEX
  8
LAYER_1
 10
-5.7886
 20
212.6806
  0
VERTEX
  8
LAYER_1
 10
-6.0925
 20
212.6806
  0
VERTEX
  8
LAYER_1
 10
-6.0925
 20
211.4352
  0
VERTEX
  8
LAYER_1
 10
-5.7814
 20
211.4352
  0
VERTEX
  8
LAYER_1
 10
-5.7814
 20
212.1883
 42
-0.4179621604
  0
VERTEX
  8
LAYER_1
 10
-5.573
 20
212.4149
 42
-0.4342829929
  0
VERTEX
  8
LAYER_1
 10
-5.3673
 20
212.1883
  0
VERTEX
  8
LAYER_1
 10
-5.3673
 20
211.4352
  0
SEQEND
  0
POLYLINE
  8
LAYER_1
 40
0.05
 41
0.05
 66
1
 10
0
 20
0
 30
0
 70
1
  0
VERTEX
  8
LAYER_1
 10
-6.437
 20
213.1467
  0
VERTEX
  8
LAYER_1
 10
-6.7553
 20
213.1467
  0
VERTEX
  8
LAYER_1
 10
-6.7553
 20
212.8931
  0
VERTEX
  8
LAYER_1
 10
-6.437
 20
212.8931
  0
SEQEND
  0
POLYLINE
  8
LAYER_1
 40
0.05
 41
0.05
 66
1
 10
0
 20
0
 30
0
 70
1
  0
VERTEX
  8
LAYER_1
 10
-6.4394
 20
212.6444
  0
VERTEX
  8
LAYER_1
 10
-6.7508
 20
212.6444
  0
VERTEX
  8
LAYER_1
 10
-6.7508
 20
211.4352
  0
VERTEX
  8
LAYER_1
 10
-6.4394
 20
211.4352
  0
SEQEND
  0
POLYLINE
  8
LAYER_1
 40
0.05
 41
0.05
 66
1
 10
0
 20
0
 30
0
  0
VERTEX
  8
LAYER_1
 10
-7.8994
 20
212.1738
  0
VERTEX
  8
LAYER_1
 10
-8.3735
 20
212.1738
 42
-0.1146919506
  0
VERTEX
  8
LAYER_1
 10
-8.3445
 20
212.3075
 42
-0.3018991672
  0
VERTEX
  8
LAYER_1
 10
-8.1365
 20
212.4363
 42
-0.2970494637
  0
VERTEX
  8
LAYER_1
 10
-7.9284
 20
212.3075
 42
-0.09886844151
  0
VERTEX
  8
LAYER_1
 10
-7.8994
 20
212.1738
  0
SEQEND
  0
POLYLINE
  8
LAYER_1
 40
0.05
 41
0.05
 66
1
 10
0
 20
0
 30
0
 70
1
  0
VERTEX
  8
LAYER_1
 10
-7.5932
 20
211.9609
  0
VERTEX
  8
LAYER_1
 10
-7.5932
 20
212.0925
 42
0.1891963687
  0
VERTEX
  8
LAYER_1
 10
-7.7571
 20
212.5502
 42
0.2074768028
  0
VERTEX
  8
LAYER_1
 10
-8.1365
 20
212.6947
 42
0.212635805
  0
VERTEX
  8
LAYER_1
 10
-8.5293
 20
212.5292
 42
0.1815550622
  0
VERTEX
  8
LAYER_1
 10
-8.6787
 20
212.1059
 42
0.01190200981
  0
VERTEX
  8
LAYER_1
 10
-8.6797
 20
212.0591
 42
0.1802869298
  0
VERTEX
  8
LAYER_1
 10
-8.5263
 20
211.5744
 42
0.2020040623
  0
VERTEX
  8
LAYER_1
 10
-8.158
 20
211.4223
 42
0.01696202641
  0
VERTEX
  8
LAYER_1
 10
-8.103
 20
211.4207
 42
0.2069028033
  0
VERTEX
  8
LAYER_1
 10
-7.6557
 20
211.5904
 42
0.01111068861
  0
VERTEX
  8
LAYER_1
 10
-7.629
 20
211.6167
  0
VERTEX
  8
LAYER_1
 10
-7.8181
 20
211.801
 42
-0.224324849
  0
VERTEX
  8
LAYER_1
 10
-8.1003
 20
211.6839
 42
-0.4264622019
  0
VERTEX
  8
LAYER_1
 10
-8.3735
 20
211.9609
  0
SEQEND
  0
POLYLINE
  8
LAYER_1
 40
0.05
 41
0.05
 66
1
 10
0
 20
0
 30
0
  0
VERTEX
  8
LAYER_1
 10
-9.2778
 20
212.0591
 42
-0.1438386142
  0
VERTEX
  8
LAYER_1
 10
-9.3235
 20
211.7869
 42
-0.2886460427
  0
VERTEX
  8
LAYER_1
 10
-9.4911
 20
211.7004
 42
-0.3841580528
  0
VERTEX
  8
LAYER_1
 10
-9.6851
 20
211.8609
 42
-0.05455021257
  0
VERTEX
  8
LAYER_1
 10
-9.7016
 20
212.0591
 42
-0.1483049254
  0
VERTEX
  8
LAYER_1
 10
-9.6559
 20
212.3323
 42
-0.2855556046
  0
VERTEX
  8
LAYER_1
 10
-9.4911
 20
212.4149
 42
-0.3794480357
  0
VERTEX
  8
LAYER_1
 10
-9.2951
 20
212.2564
 42
-0.05697683845
  0
VERTEX
  8
LAYER_1
 10
-9.2778
 20
212.0591
  0
SEQEND
  0
POLYLINE
  8
LAYER_1
 40
0.05
 41
0.05
 66
1
 10
0
 20
0
 30
0
 70
1
  0
VERTEX
  8
LAYER_1
 10
-8.9667
 20
211.4352
  0
VERTEX
  8
LAYER_1
 10
-8.9667
 20
213.137
  0
VERTEX
  8
LAYER_1
 10
-9.2778
 20
213.137
  0
VERTEX
  8
LAYER_1
 10
-9.2778
 20
212.5707
 42
0.2300395261
  0
VERTEX
  8
LAYER_1
 10
-9.582
 20
212.6947
 42
0.1954770263
  0
VERTEX
  8
LAYER_1
 10
-9.8835
 20
212.5824
 42
0.1230294745
  0
VERTEX
  8
LAYER_1
 10
-9.9795
 20
212.4101
 42
0.0747779445
  0
VERTEX
  8
LAYER_1
 10
-10.013
 20
212.0591
 42
0.0994778514
  0
VERTEX
  8
LAYER_1
 10
-9.9681
 20
211.6705
 42
0.1088456143
  0
VERTEX
  8
LAYER_1
 10
-9.8835
 20
211.533
 42
0.2047870903
  0
VERTEX
  8
LAYER_1
 10
-9.5796
 20
211.4207
 42
0.2301062358
  0
VERTEX
  8
LAYER_1
 10
-9.2709
 20
211.5523
  0
VERTEX
  8
LAYER_1
 10
-9.2709
 20
211.4352
  0
SEQEND
  0
POLYLINE
  8
LAYER_1
 40
0.05
 41
0.05
 66
1
 10
0
 20
0
 30
0
 70
1
  0
VERTEX
  8
LAYER_1
 10
-10.6062
 20
211.894
 42
-0.2466163696
  0
VERTEX
  8
LAYER_1
 10
-10.6541
 20
211.7363
 42
-0.212724989
  0
VERTEX
  8
LAYER_1
 10
-10.8384
 20
211.6763
 42
-0.2059659062
  0
VERTEX
  8
LAYER_1
 10
-10.9909
 20
211.7231
 42
-0.2055032453
  0
VERTEX
  8
LAYER_1
 10
-11.0272
 20
211.8176
 42
-0.4727797621
  0
VERTEX
  8
LAYER_1
 10
-10.8433
 20
211.9609
  0
VERTEX
  8
LAYER_1
 10
-10.6062
 20
211.9609
  0
SEQEND
  0
POLYLINE
  8
LAYER_1
 40
0.05
 41
0.05
 66
1
 10
0
 20
0
 30
0
 70
1
  0
VERTEX
  8
LAYER_1
 10
-10.2952
 20
211.4352
  0
VERTEX
  8
LAYER_1
 10
-10.2952
 20
212.2551
 42
0.2449717567
  0
VERTEX
  8
LAYER_1
 10
-10.4551
 20
212.6039
 42
0.1631604865
  0
VERTEX
  8
LAYER_1
 10
-10.8267
 20
212.6947
 42
0.223003002
  0
VERTEX
  8
LAYER_1
 10
-11.2625
 20
212.5302
 42
0.006267388191
  0
VERTEX
  8
LAYER_1
 10
-11.2739
 20
212.5179
  0
VERTEX
  8
LAYER_1
 10
-11.0779
 20
212.3243
 42
-0.2470834876
  0
VERTEX
  8
LAYER_1
 10
-10.8384
 20
212.4322
 42
-0.1872740545
  0
VERTEX
  8
LAYER_1
 10
-10.6621
 20
212.3865
 42
-0.238797369
  0
VERTEX
  8
LAYER_1
 10
-10.6062
 20
212.2358
  0
VERTEX
  8
LAYER_1
 10
-10.6062
 20
212.1738
  0
VERTEX
  8
LAYER_1
 10
-10.896
 20
212.1738
 42
0.2346153399
  0
VERTEX
  8
LAYER_1
 10
-11.268
 20
212.0142
 42
0.1531846975
  0
VERTEX
  8
LAYER_1
 10
-11.3266
 20
211.8127
 42
0.1894880782
  0
VERTEX
  8
LAYER_1
 10
-11.2239
 20
211.533
 42
0.2078362131
  0
VERTEX
  8
LAYER_1
 10
-10.9053
 20
211.4228
 42
0.2218282602
  0
VERTEX
  8
LAYER_1
 10
-10.599
 20
211.5426
  0
VERTEX
  8
LAYER_1
 10
-10.599
 20
211.4352
  0
SEQEND
  0
POLYLINE
  8
LAYER_1
 40
0.05
 41
0.05
 66
1
 10
0
 20
0
 30
0
 70
1
  0
VERTEX
  8
LAYER_1
 10
-11.5733
 20
211.4352
  0
VERTEX
  8
LAYER_1
 10
-11.5733
 20
212.231
 42
0.205542241
  0
VERTEX
  8
LAYER_1
 10
-11.7097
 20
212.5844
 42
0.1987814349
  0
VERTEX
  8
LAYER_1
 10
-12.016
 20
212.6947
 42
0.2182066523
  0
VERTEX
  8
LAYER_1
 10
-12.3894
 20
212.5369
 42
0.2491445422
  0
VERTEX
  8
LAYER_1
 10
-12.7198
 20
212.6947
 42
0.1964079247
  0
VERTEX
  8
LAYER_1
 10
-13.0309
 20
212.5658
  0
VERTEX
  8
LAYER_1
 10
-13.0309
 20
212.6806
  0
VERTEX
  8
LAYER_1
 10
-13.3348
 20
212.6806
  0
VERTEX
  8
LAYER_1
 10
-13.3348
 20
211.4352
  0
VERTEX
  8
LAYER_1
 10
-13.0233
 20
211.4352
  0
VERTEX
  8
LAYER_1
 10
-13.0233
 20
212.1883
 42
-0.4179659679
  0
VERTEX
  8
LAYER_1
 10
-12.8152
 20
212.4149
 42
-0.4342681599
  0
VERTEX
  8
LAYER_1
 10
-12.6096
 20
212.1883
  0
VERTEX
  8
LAYER_1
 10
-12.6096
 20
211.4352
  0
VERTEX
  8
LAYER_1
 10
-12.2985
 20
211.4352
  0
VERTEX
  8
LAYER_1
 10
-12.2985
 20
212.1951
 42
-0.4176164983
  0
VERTEX
  8
LAYER_1
 10
-12.0904
 20
212.4149
 42
-0.4347166888
  0
VERTEX
  8
LAYER_1
 10
-11.8844
 20
212.1883
  0
VERTEX
  8
LAYER_1
 10
-11.8844
 20
211.4352
  0
SEQEND
  0
POLYLINE
  8
LAYER_1
 40
0.05
 41
0.05
 66
1
 10
0
 20
0
 30
0
  0
VERTEX
  8
LAYER_1
 10
-13.8973
 20
212.0229
 42
-0.1159545013
  0
VERTEX
  8
LAYER_1
 10
-13.9445
 20
211.7201
 42
-0.3130236509
  0
VERTEX
  8
LAYER_1
 10
-14.1916
 20
211.5736
 42
-0.3150185863
  0
VERTEX
  8
LAYER_1
 10
-14.446
 20
211.7323
 42
-0.1052799031
  0
VERTEX
  8
LAYER_1
 10
-14.4882
 20
212.0229
 42
-0.113922501
  0
VERTEX
  8
LAYER_1
 10
-14.4424
 20
212.3219
 42
-0.3163703602
  0
VERTEX
  8
LAYER_1
 10
-14.1916
 20
212.4725
 42
-0.3164274474
  0
VERTEX
  8
LAYER_1
 10
-13.9391
 20
212.3138
 42
-0.1034386904
  0
VERTEX
  8
LAYER_1
 10
-13.8973
 20
212.0229
  0
SEQEND
  0
POLYLINE
  8
LAYER_1
 40
0.05
 41
0.05
 66
1
 10
0
 20
0
 30
0
 70
1
  0
VERTEX
  8
LAYER_1
 10
-13.7247
 20
211.4352
  0
VERTEX
  8
LAYER_1
 10
-13.7247
 20
213.137
  0
VERTEX
  8
LAYER_1
 10
-13.8973
 20
213.137
  0
VERTEX
  8
LAYER_1
 10
-13.8973
 20
212.4749
 42
0.2525818121
  0
VERTEX
  8
LAYER_1
 10
-14.2298
 20
212.6258
 42
0.1886393528
  0
VERTEX
  8
LAYER_1
 10
-14.5171
 20
212.5224
 42
0.1172978386
  0
VERTEX
  8
LAYER_1
 10
-14.6205
 20
212.3434
 42
0.07876818405
  0
VERTEX
  8
LAYER_1
 10
-14.6608
 20
212.0229
 42
0.09207329595
  0
VERTEX
  8
LAYER_1
 10
-14.6127
 20
211.6805
 42
0.1077667615
  0
VERTEX
  8
LAYER_1
 10
-14.5171
 20
211.5234
 42
0.198210181
  0
VERTEX
  8
LAYER_1
 10
-14.2298
 20
211.4207
 42
0.2515984765
  0
VERTEX
  8
LAYER_1
 10
-13.8949
 20
211.5761
  0
VERTEX
  8
LAYER_1
 10
-13.8949
 20
211.4352
  0
SEQEND
  0
POLYLINE
  8
LAYER_1
 40
0.05
 41
0.05
 66
1
 10
0
 20
0
 30
0
 70
1
  0
VERTEX
  8
LAYER_1
 10
-15.0173
 20
211.4352
  0
VERTEX
  8
LAYER_1
 10
-15.0173
 20
212.1883
 42
0.202703885
  0
VERTEX
  8
LAYER_1
 10
-15.1393
 20
212.5155
 42
0.2046678658
  0
VERTEX
  8
LAYER_1
 10
-15.4411
 20
212.6258
 42
0.2165707378
  0
VERTEX
  8
LAYER_1
 10
-15.7711
 20
212.4818
  0
VERTEX
  8
LAYER_1
 10
-15.7711
 20
212.6113
  0
VERTEX
  8
LAYER_1
 10
-15.9434
 20
212.6113
  0
VERTEX
  8
LAYER_1
 10
-15.9434
 20
211.4352
  0
VERTEX
  8
LAYER_1
 10
-15.7711
 20
211.4352
  0
VERTEX
  8
LAYER_1
 10
-15.7711
 20
212.1593
 42
-0.2837547598
  0
VERTEX
  8
LAYER_1
 10
-15.6189
 20
212.4442
 42
-0.1086336204
  0
VERTEX
  8
LAYER_1
 10
-15.479
 20
212.4725
 42
-0.442304779
  0
VERTEX
  8
LAYER_1
 10
-15.1896
 20
212.1593
  0
VERTEX
  8
LAYER_1
 10
-15.1896
 20
211.4352
  0
SEQEND
  0
POLYLINE
  8
LAYER_1
 40
0.05
 41
0.05
 66
1
 10
0
 20
0
 30
0
 70
1
  0
VERTEX
  8
LAYER_1
 10
-16.5346
 20
211.8506
 42
-0.2101171453
  0
VERTEX
  8
LAYER_1
 10
-16.5945
 20
211.6477
 42
-0.2061049303
  0
VERTEX
  8
LAYER_1
 10
-16.8553
 20
211.5688
 42
-0.1622506966
  0
VERTEX
  8
LAYER_1
 10
-17.0584
 20
211.615
 42
-0.2627350918
  0
VERTEX
  8
LAYER_1
 10
-17.1282
 20
211.77
 42
-0.376646919
  0
VERTEX
  8
LAYER_1
 10
-16.9692
 20
211.9668
 42
-0.05118405332
  0
VERTEX
  8
LAYER_1
 10
-16.8625
 20
211.9774
  0
VERTEX
  8
LAYER_1
 10
-16.5346
 20
211.9774
  0
SEQEND
  0
POLYLINE
  8
LAYER_1
 40
0.05
 41
0.05
 66
1
 10
0
 20
0
 30
0
 70
1
  0
VERTEX
  8
LAYER_1
 10
-16.362
 20
211.4352
  0
VERTEX
  8
LAYER_1
 10
-16.362
 20
212.233
 42
0.2623610217
  0
VERTEX
  8
LAYER_1
 10
-16.5224
 20
212.5561
 42
0.1450933816
  0
VERTEX
  8
LAYER_1
 10
-16.8336
 20
212.6258
 42
0.2362276322
  0
VERTEX
  8
LAYER_1
 10
-17.2355
 20
212.4672
 42
0.01170794038
  0
VERTEX
  8
LAYER_1
 10
-17.2501
 20
212.4487
  0
VERTEX
  8
LAYER_1
 10
-17.133
 20
212.3409
 42
-0.2755800686
  0
VERTEX
  8
LAYER_1
 10
-16.8364
 20
212.4776
 42
-0.1517468402
  0
VERTEX
  8
LAYER_1
 10
-16.6283
 20
212.4308
 42
-0.2800643637
  0
VERTEX
  8
LAYER_1
 10
-16.5346
 20
212.2193
  0
VERTEX
  8
LAYER_1
 10
-16.5346
 20
212.1066
  0
VERTEX
  8
LAYER_1
 10
-16.8863
 20
212.1066
 42
0.2378691362
  0
VERTEX
  8
LAYER_1
 10
-17.2451
 20
211.9523
 42
0.1477379502
  0
VERTEX
  8
LAYER_1
 10
-17.2956
 20
211.7673
 42
0.1985438552
  0
VERTEX
  8
LAYER_1
 10
-17.207
 20
211.5282
 42
0.2224112685
  0
VERTEX
  8
LAYER_1
 10
-16.8742
 20
211.4207
 42
0.21971579
  0
VERTEX
  8
LAYER_1
 10
-16.5346
 20
211.5471
  0
VERTEX
  8
LAYER_1
 10
-16.5346
 20
211.4352
  0
SEQEND
  0
POLYLINE
  8
LAYER_1
 40
0.05
 41
0.05
 66
1
 10
0
 20
0
 30
0
 70
1
  0
VERTEX
  8
LAYER_1
 10
-17.6211
 20
211.4352
  0
VERTEX
  8
LAYER_1
 10
-17.6211
 20
212.1903
 42
0.2366048602
  0
VERTEX
  8
LAYER_1
 10
-17.7848
 20
212.5524
 42
0.1585996094
  0
VERTEX
  8
LAYER_1
 10
-18.0449
 20
212.6258
 42
0.2174282511
  0
VERTEX
  8
LAYER_1
 10
-18.3749
 20
212.4818
  0
VERTEX
  8
LAYER_1
 10
-18.3749
 20
213.137
  0
VERTEX
  8
LAYER_1
 10
-18.5475
 20
213.137
  0
VERTEX
  8
LAYER_1
 10
-18.5475
 20
211.4352
  0
VERTEX
  8
LAYER_1
 10
-18.3749
 20
211.4352
  0
VERTEX
  8
LAYER_1
 10
-18.3749
 20
212.1617
 42
-0.2889308341
  0
VERTEX
  8
LAYER_1
 10
-18.2221
 20
212.4453
 42
-0.1047577161
  0
VERTEX
  8
LAYER_1
 10
-18.0807
 20
212.4725
 42
-0.4463558923
  0
VERTEX
  8
LAYER_1
 10
-17.7934
 20
212.1617
  0
VERTEX
  8
LAYER_1
 10
-17.7934
 20
211.4352
  0
SEQEND
  0
ENDBLK
  0
BLOCK
  8
LAYER_1
  2
AIGNBL01020007
 70
64
 10
0
 20
0
 30
0
  3
AIGNBL01020007
  0
INSERT
  8
LAYER_1
  2
AIGNBL01030008
 10
0
 20
0
 30
0
  0
ENDBLK
  0
BLOCK
  8
LAYER_1
  2
AIGNBL01020010
 70
64
 10
0
 20
0
 30
0
  3
AIGNBL01020010
  0
INSERT
  8
LAYER_1
  2
AIGNBL01030011
 10
0
 20
0
 30
0
  0
INSERT
  8
LAYER_1
  2
AIGNBL01030012
 10
0
 20
0
 30
0
  0
INSERT
  8
LAYER_1
  2
AIGNBL01030013
 10
0
 20
0
 30
0
  0
INSERT
  8
LAYER_1
  2
AIGNBL01030014
 10
0
 20
0
 30
0
  0
INSERT
  8
LAYER_1
  2
AIGNBL01030015
 10
0
 20
0
 30
0
  0
INSERT
  8
LAYER_1
  2
AIGNBL01030016
 10
0
 20
0
 30
0
  0
INSERT
  8
LAYER_1
  2
AIGNBL01030017
 10
0
 20
0
 30
0
  0
INSERT
  8
LAYER_1
  2
AIGNBL01030018
 10
0
 20
0
 30
0
  0
INSERT
  8
LAYER_1
  2
AIGNBL01030019
 10
0
 20
0
 30
0
  0
INSERT
  8
LAYER_1
  2
AIGNBL0103001A
 10
0
 20
0
 30
0
  0
INSERT
  8
LAYER_1
  2
AIGNBL0103001B
 10
0
 20
0
 30
0
  0
INSERT
  8
LAYER_1
  2
AIGNBL0103001C
 10
0
 20
0
 30
0
  0
INSERT
  8
LAYER_1
  2
AIGNBL0103001D
 10
0
 20
0
 30
0
  0
INSERT
  8
LAYER_1
  2
AIGNBL0103001E
 10
0
 20
0
 30
0
  0
INSERT
  8
LAYER_1
  2
AIGNBL0103001F
 10
0
 20
0
 30
0
  0
INSERT
  8
LAYER_1
  2
AIGNBL01030020
 10
0
 20
0
 30
0
  0
INSERT
  8
LAYER_1
  2
AIGNBL01030021
 10
0
 20
0
 30
0
  0
INSERT
  8
LAYER_1
  2
AIGNBL01030022
 10
0
 20
0
 30
0
  0
INSERT
  8
LAYER_1
  2
AIGNBL01030023
 10
0
 20
0
 30
0
  0
INSERT
  8
LAYER_1
  2
AIGNBL01030024
 10
0
 20
0
 30
0
  0
INSERT
  8
LAYER_1
  2
AIGNBL01030025
 10
0
 20
0
 30
0
  0
INSERT
  8
LAYER_1
  2
AIGNBL01030026
 10
0
 20
0
 30
0
  0
INSERT
  8
LAYER_1
  2
AIGNBL01030027
 10
0
 20
0
 30
0
  0
ENDBLK
  0
BLOCK
  8
LAYER_1
  2
AIGNBL01010002
 70
64
 10
0
 20
0
 30
0
  3
AIGNBL01010002
  0
POLYLINE
  8
LAYER_1
 40
0.7056
 41
0.7056
 66
1
 10
0
 20
0
 30
0
 70
1
  0
VERTEX
  8
LAYER_1
 10
251.6749
 20
230.337
  0
VERTEX
  8
LAYER_1
 10
251.6749
 20
33.3285
  0
VERTEX
  8
LAYER_1
 10
-30.3177
 20
33.3285
  0
VERTEX
  8
LAYER_1
 10
-30.3177
 20
230.337
  0
SEQEND
  0
ENDBLK
  0
BLOCK
  8
LAYER_1
  2
AIGNBL01010003
 70
64
 10
0
 20
0
 30
0
  3
AIGNBL01010003
  0
INSERT
  8
LAYER_1
  2
AIGNBL01020004
 10
0
 20
0
 30
0
  0
POLYLINE
  8
LAYER_1
 40
0.05
 41
0.05
 66
1
 10
0
 20
0
 30
0
  0
VERTEX
  8
LAYER_1
 10
-6.457
 20
223.2684
  0
VERTEX
  8
LAYER_1
 10
-8.0924
 20
223.2684
  0
VERTEX
  8
LAYER_1
 10
-8.0924
 20
216.1939
 42
0.1050424825
  0
VERTEX
  8
LAYER_1
 10
-7.9127
 20
215.3316
 42
0.1079536646
  0
VERTEX
  8
LAYER_1
 10
-7.4796
 20
214.75
 42
0.105678841
  0
VERTEX
  8
LAYER_1
 10
-6.8587
 20
214.4154
 42
0.04706827067
  0
VERTEX
  8
LAYER_1
 10
-6.4597
 20
214.3359
  0
VERTEX
  8
LAYER_1
 10
-6.457
 20
223.2684
  0
SEQEND
  0
INSERT
  8
LAYER_1
  2
AIGNBL01020005
 10
0
 20
0
 30
0
  0
ENDBLK
  0
BLOCK
  8
LAYER_1
  2
AIGNBL01010006
 70
64
 10
0
 20
0
 30
0
  3
AIGNBL01010006
  0
INSERT
  8
LAYER_1
  2
AIGNBL01020007
 10
0
 20
0
 30
0
  0
INSERT
  8
LAYER_1
  2
AIGNBL01020010
 10
0
 20
0
 30
0
  0
ENDBLK
  0
BLOCK
  8
LAYER_1
  2
AIGNBL01010028
 70
64
 10
0
 20
0
 30
0
  3
AIGNBL01010028
  0
POLYLINE
  8
LAYER_1
  6
AIGENLINE001
 40
0.1411
 41
0.1411
 66
1
 10
0
 20
0
 30
0
 70
128
  0
VERTEX
  8
LAYER_1
 10
86.0716
 20
97.5658
  0
VERTEX
  8
LAYER_1
 10
86.0716
 20
97.3357
  0
SEQEND
  0
POLYLINE
  8
LAYER_1
  6
AIGENLINE001
 40
0.1411
 41
0.1411
 66
1
 10
0
 20
0
 30
0
 70
128
  0
VERTEX
  8
LAYER_1
 10
86.4168
 20
97.5658
  0
VERTEX
  8
LAYER_1
 10
86.4168
 20
97.3357
  0
SEQEND
  0
ENDBLK
  0
BLOCK
  8
LAYER_1
  2
AIGNBL01010029
 70
64
 10
0
 20
0
 30
0
  3
AIGNBL01010029
  0
POLYLINE
  8
LAYER_1
  6
AIGENLINE002
 40
0.1411
 41
0.1411
 66
1
 10
0
 20
0
 30
0
 70
128
  0
VERTEX
  8
LAYER_1
 10
86.4168
 20
97.5658
  0
VERTEX
  8
LAYER_1
 10
86.4071
 20
97.5713
  0
SEQEND
  0
POLYLINE
  8
LAYER_1
  6
AIGENLINE002
 40
0.1411
 41
0.1411
 66
1
 10
0
 20
0
 30
0
 70
128
  0
VERTEX
  8
LAYER_1
 10
86.0819
 20
97.5713
  0
VERTEX
  8
LAYER_1
 10
86.0723
 20
97.5658
  0
SEQEND
  0
ENDBLK
  0
BLOCK
  8
LAYER_1
  2
AIGNBL0101002A
 70
64
 10
0
 20
0
 30
0
  3
AIGNBL0101002A
  0
POLYLINE
  8
LAYER_1
  6
AIGENLINE001
 40
0.1411
 41
0.1411
 66
1
 10
0
 20
0
 30
0
 70
128
  0
VERTEX
  8
LAYER_1
 10
92.4168
 20
97.5658
  0
VERTEX
  8
LAYER_1
 10
92.4168
 20
97.3357
  0
SEQEND
  0
POLYLINE
  8
LAYER_1
  6
AIGENLINE001
 40
0.1411
 41
0.1411
 66
1
 10
0
 20
0
 30
0
 70
128
  0
VERTEX
  8
LAYER_1
 10
92.0716
 20
97.5658
  0
VERTEX
  8
LAYER_1
 10
92.0716
 20
97.3357
  0
SEQEND
  0
ENDBLK
  0
BLOCK
  8
LAYER_1
  2
AIGNBL0101002B
 70
64
 10
0
 20
0
 30
0
  3
AIGNBL0101002B
  0
POLYLINE
  8
LAYER_1
  6
AIGENLINE002
 40
0.1411
 41
0.1411
 66
1
 10
0
 20
0
 30
0
 70
128
  0
VERTEX
  8
LAYER_1
 10
92.0812
 20
97.5713
  0
VERTEX
  8
LAYER_1
 10
92.0716
 20
97.5658
  0
SEQEND
  0
POLYLINE
  8
LAYER_1
  6
AIGENLINE002
 40
0.1411
 41
0.1411
 66
1
 10
0
 20
0
 30
0
 70
128
  0
VERTEX
  8
LAYER_1
 10
92.4168
 20
97.5658
  0
VERTEX
  8
LAYER_1
 10
92.4071
 20
97.5713
  0
SEQEND
  0
ENDBLK
  0
BLOCK
  8
LAYER_1
  2
AIGNBL0101002C
 70
64
 10
0
 20
0
 30
0
  3
AIGNBL0101002C
  0
POLYLINE
  8
LAYER_1
  6
AIGENLINE003
 40
0.1411
 41
0.1411
 66
1
 10
0
 20
0
 30
0
 70
128
  0
VERTEX
  8
LAYER_1
 10
92.2355
 20
135.2731
  0
VERTEX
  8
LAYER_1
 10
91.5431
 20
135.2731
  0
SEQEND
  0
POLYLINE
  8
LAYER_1
  6
AIGENLINE003
 40
0.1411
 41
0.1411
 66
1
 10
0
 20
0
 30
0
 70
128
  0
VERTEX
  8
LAYER_1
 10
86.9432
 20
135.2731
  0
VERTEX
  8
LAYER_1
 10
86.2507
 20
135.2731
  0
SEQEND
  0
ENDBLK
  0
BLOCK
  8
LAYER_1
  2
AIGNBL0101002D
 70
64
 10
0
 20
0
 30
0
  3
AIGNBL0101002D
  0
POLYLINE
  8
LAYER_1
  6
AIGENLINE001
 40
0.1411
 41
0.1411
 66
1
 10
0
 20
0
 30
0
 70
128
  0
VERTEX
  8
LAYER_1
 10
186.3962
 20
97.5658
  0
VERTEX
  8
LAYER_1
 10
186.3962
 20
97.3357
  0
SEQEND
  0
POLYLINE
  8
LAYER_1
  6
AIGENLINE001
 40
0.1411
 41
0.1411
 66
1
 10
0
 20
0
 30
0
 70
128
  0
VERTEX
  8
LAYER_1
 10
186.0517
 20
97.5658
  0
VERTEX
  8
LAYER_1
 10
186.0517
 20
97.3357
  0
SEQEND
  0
ENDBLK
  0
BLOCK
  8
LAYER_1
  2
AIGNBL0101002E
 70
64
 10
0
 20
0
 30
0
  3
AIGNBL0101002E
  0
POLYLINE
  8
LAYER_1
  6
AIGENLINE002
 40
0.1411
 41
0.1411
 66
1
 10
0
 20
0
 30
0
 70
128
  0
VERTEX
  8
LAYER_1
 10
186.0613
 20
97.5713
  0
VERTEX
  8
LAYER_1
 10
186.0517
 20
97.5658
  0
SEQEND
  0
POLYLINE
  8
LAYER_1
  6
AIGENLINE002
 40
0.1411
 41
0.1411
 66
1
 10
0
 20
0
 30
0
 70
128
  0
VERTEX
  8
LAYER_1
 10
186.3962
 20
97.5658
  0
VERTEX
  8
LAYER_1
 10
186.3879
 20
97.5713
  0
SEQEND
  0
ENDBLK
  0
BLOCK
  8
LAYER_1
  2
AIGNBL0101002F
 70
64
 10
0
 20
0
 30
0
  3
AIGNBL0101002F
  0
POLYLINE
  8
LAYER_1
 40
0.1058
 41
0.1058
 66
1
 10
0
 20
0
 30
0
  0
VERTEX
  8
LAYER_1
 10
190.8407
 20
188.1222
  0
VERTEX
  8
LAYER_1
 10
190.4421
 20
188.1637
  0
VERTEX
  8
LAYER_1
 10
188.2576
 20
189.5252
  0
VERTEX
  8
LAYER_1
 10
187.0304
 20
190.2905
  0
SEQEND
  0
POLYLINE
  8
LAYER_1
 40
0.1058
 41
0.1058
 66
1
 10
0
 20
0
 30
0
  0
VERTEX
  8
LAYER_1
 10
184.839
 20
190.9837
  0
VERTEX
  8
LAYER_1
 10
184.5648
 20
191.0118
  0
VERTEX
  8
LAYER_1
 10
184.591
 20
191.0442
  0
VERTEX
  8
LAYER_1
 10
184.6251
 20
191.0741
  0
VERTEX
  8
LAYER_1
 10
184.6671
 20
191.1036
  0
VERTEX
  8
LAYER_1
 10
184.7243
 20
191.1351
  0
VERTEX
  8
LAYER_1
 10
184.8562
 20
191.1902
  0
VERTEX
  8
LAYER_1
 10
185.022
 20
191.2393
  0
VERTEX
  8
LAYER_1
 10
185.2063
 20
191.2765
  0
VERTEX
  8
LAYER_1
 10
185.4064
 20
191.3036
 42
-0.02790571308
  0
VERTEX
  8
LAYER_1
 10
185.8405
 20
191.3236
  0
SEQEND
  0
ENDBLK
  0
BLOCK
  8
LAYER_1
  2
AIGNBL01010030
 70
64
 10
0
 20
0
 30
0
  3
AIGNBL01010030
  0
POLYLINE
  8
LAYER_1
 40
0.1058
 41
0.1058
 66
1
 10
0
 20
0
 30
0
  0
VERTEX
  8
LAYER_1
 10
186.9498
 20
184.7899
  0
VERTEX
  8
LAYER_1
 10
190.0831
 20
188.1022
  0
VERTEX
  8
LAYER_1
 10
187.9041
 20
189.4658
  0
VERTEX
  8
LAYER_1
 10
187.026
 20
190.0167
  0
SEQEND
  0
POLYLINE
  8
LAYER_1
 40
0.1058
 41
0.1058
 66
1
 10
0
 20
0
 30
0
  0
VERTEX
  8
LAYER_1
 10
189.3807
 20
187.3586
  0
VERTEX
  8
LAYER_1
 10
187.9172
 20
188.291
  0
VERTEX
  8
LAYER_1
 10
187.0087
 20
188.8693
  0
SEQEND
  0
ENDBLK
  0
BLOCK
  8
LAYER_1
  2
AIGNBL01010031
 70
64
 10
0
 20
0
 30
0
  3
AIGNBL01010031
  0
POLYLINE
  8
LAYER_1
 40
0.1058
 41
0.1058
 66
1
 10
0
 20
0
 30
0
  0
VERTEX
  8
LAYER_1
 10
190.7598
 20
188.0101
  0
VERTEX
  8
LAYER_1
 10
190.5234
 20
187.9697
  0
VERTEX
  8
LAYER_1
 10
190.2878
 20
187.9291
  0
VERTEX
  8
LAYER_1
 10
186.9443
 20
184.3753
  0
SEQEND
  0
POLYLINE
  8
LAYER_1
 40
0.1058
 41
0.1058
 66
1
 10
0
 20
0
 30
0
  0
VERTEX
  8
LAYER_1
 10
186.9443
 20
184.3708
  0
VERTEX
  8
LAYER_1
 10
189.9743
 20
187.5949
  0
VERTEX
  8
LAYER_1
 10
189.975
 20
187.5059
  0
VERTEX
  8
LAYER_1
 10
190.1114
 20
187.4878
  0
VERTEX
  8
LAYER_1
 10
190.2533
 20
187.4774
  0
VERTEX
  8
LAYER_1
 10
190.5369
 20
187.4692
  0
VERTEX
  8
LAYER_1
 10
190.8294
 20
187.4831
  0
VERTEX
  8
LAYER_1
 10
191.1036
 20
187.5181
  0
VERTEX
  8
LAYER_1
 10
191.2279
 20
187.5434
  0
VERTEX
  8
LAYER_1
 10
191.3471
 20
187.5737
  0
VERTEX
  8
LAYER_1
 10
191.4519
 20
187.6068
  0
VERTEX
  8
LAYER_1
 10
191.5459
 20
187.6447
  0
VERTEX
  8
LAYER_1
 10
191.6255
 20
187.6848
  0
VERTEX
  8
LAYER_1
 10
191.6906
 20
187.7279
  0
VERTEX
  8
LAYER_1
 10
191.7371
 20
187.7705
  0
VERTEX
  8
LAYER_1
 10
191.7706
 20
187.8173
  0
VERTEX
  8
LAYER_1
 10
191.7706
 20
187.906
  0
SEQEND
  0
POLYLINE
  8
LAYER_1
 40
0.1058
 41
0.1058
 66
1
 10
0
 20
0
 30
0
  0
VERTEX
  8
LAYER_1
 10
190.3987
 20
187.9484
  0
VERTEX
  8
LAYER_1
 10
190.3987
 20
188.0474
  0
VERTEX
  8
LAYER_1
 10
190.2871
 20
187.9291
  0
VERTEX
  8
LAYER_1
 10
189.975
 20
187.5954
  0
VERTEX
  8
LAYER_1
 10
190.1148
 20
187.5775
  0
VERTEX
  8
LAYER_1
 10
190.2557
 20
187.5662
  0
VERTEX
  8
LAYER_1
 10
190.5448
 20
187.5593
  0
VERTEX
  8
LAYER_1
 10
190.8328
 20
187.5732
  0
VERTEX
  8
LAYER_1
 10
191.1022
 20
187.6075
  0
VERTEX
  8
LAYER_1
 10
191.2269
 20
187.6328
  0
VERTEX
  8
LAYER_1
 10
191.3437
 20
187.6618
  0
VERTEX
  8
LAYER_1
 10
191.4433
 20
187.6936
  0
VERTEX
  8
LAYER_1
 10
191.5404
 20
187.7315
  0
VERTEX
  8
LAYER_1
 10
191.6162
 20
187.7696
  0
VERTEX
  8
LAYER_1
 10
191.6851
 20
187.8137
  0
VERTEX
  8
LAYER_1
 10
191.7354
 20
187.8581
  0
VERTEX
  8
LAYER_1
 10
191.7699
 20
187.9064
  0
SEQEND
  0
ENDBLK
  0
BLOCK
  8
LAYER_1
  2
AIGNBL01010032
 70
64
 10
0
 20
0
 30
0
  3
AIGNBL01010032
  0
POLYLINE
  8
LAYER_1
 40
0.1058
 41
0.1058
 66
1
 10
0
 20
0
 30
0
 70
1
  0
VERTEX
  8
LAYER_1
 10
185.6345
 20
191.009
  0
VERTEX
  8
LAYER_1
 10
185.6555
 20
191.0113
  0
VERTEX
  8
LAYER_1
 10
185.6831
 20
191.0171
  0
VERTEX
  8
LAYER_1
 10
185.7034
 20
191.0247
  0
VERTEX
  8
LAYER_1
 10
185.7196
 20
191.0347
  0
VERTEX
  8
LAYER_1
 10
185.722
 20
191.0516
  0
VERTEX
  8
LAYER_1
 10
185.7196
 20
191.0547
  0
VERTEX
  8
LAYER_1
 10
185.7113
 20
191.0609
  0
VERTEX
  8
LAYER_1
 10
185.6848
 20
191.0719
  0
VERTEX
  8
LAYER_1
 10
185.5945
 20
191.0803
  0
VERTEX
  8
LAYER_1
 10
185.5508
 20
191.076
  0
VERTEX
  8
LAYER_1
 10
185.5325
 20
191.0727
  0
VERTEX
  8
LAYER_1
 10
185.5149
 20
191.0672
  0
VERTEX
  8
LAYER_1
 10
185.497
 20
191.0593
  0
VERTEX
  8
LAYER_1
 10
185.4895
 20
191.0541
  0
VERTEX
  8
LAYER_1
 10
185.4846
 20
191.0352
  0
VERTEX
  8
LAYER_1
 10
185.487
 20
191.0319
  0
VERTEX
  8
LAYER_1
 10
185.4874
 20
191.0319
  0
VERTEX
  8
LAYER_1
 10
185.495
 20
191.0257
  0
VERTEX
  8
LAYER_1
 10
185.5211
 20
191.0154
  0
VERTEX
  8
LAYER_1
 10
185.5522
 20
191.009
  0
VERTEX
  8
LAYER_1
 10
185.5756
 20
191.0068
  0
SEQEND
  0
ENDBLK
  0
BLOCK
  8
LAYER_1
  2
AIGNBL01010033
 70
64
 10
0
 20
0
 30
0
  3
AIGNBL01010033
  0
POLYLINE
  8
LAYER_1
 40
0.1058
 41
0.1058
 66
1
 10
0
 20
0
 30
0
  0
VERTEX
  8
LAYER_1
 10
190.5737
 20
187.8891
  0
VERTEX
  8
LAYER_1
 10
190.5972
 20
187.8996
  0
VERTEX
  8
LAYER_1
 10
190.6247
 20
187.906
  0
VERTEX
  8
LAYER_1
 10
190.6254
 20
187.906
  0
VERTEX
  8
LAYER_1
 10
190.6468
 20
187.9096
  0
VERTEX
  8
LAYER_1
 10
190.7095
 20
187.9105
  0
VERTEX
  8
LAYER_1
 10
190.7343
 20
187.9074
  0
VERTEX
  8
LAYER_1
 10
190.7667
 20
187.9017
  0
VERTEX
  8
LAYER_1
 10
190.7956
 20
187.8891
  0
VERTEX
  8
LAYER_1
 10
190.8039
 20
187.8829
  0
VERTEX
  8
LAYER_1
 10
190.8066
 20
187.8793
  0
VERTEX
  8
LAYER_1
 10
190.8025
 20
187.8588
  0
VERTEX
  8
LAYER_1
 10
190.7956
 20
187.8531
  0
VERTEX
  8
LAYER_1
 10
190.7777
 20
187.8442
  0
VERTEX
  8
LAYER_1
 10
190.7598
 20
187.839
  0
VERTEX
  8
LAYER_1
 10
190.7405
 20
187.834
  0
VERTEX
  8
LAYER_1
 10
190.6957
 20
187.8295
  0
VERTEX
  8
LAYER_1
 10
190.5992
 20
187.8395
  0
VERTEX
  8
LAYER_1
 10
190.5706
 20
187.8504
  0
VERTEX
  8
LAYER_1
 10
190.5617
 20
187.8581
  0
VERTEX
  8
LAYER_1
 10
190.5582
 20
187.8616
  0
VERTEX
  8
LAYER_1
 10
190.5613
 20
187.8802
  0
VERTEX
  8
LAYER_1
 10
190.5768
 20
187.8915
  0
SEQEND
  0
ENDBLK
  0
BLOCK
  8
LAYER_1
  2
AIGNBL01010034
 70
64
 10
0
 20
0
 30
0
  3
AIGNBL01010034
  0
POLYLINE
  8
LAYER_1
 40
0.1058
 41
0.1058
 66
1
 10
0
 20
0
 30
0
  0
VERTEX
  8
LAYER_1
 10
175.8497
 20
213.4278
  0
VERTEX
  8
LAYER_1
 10
174.8321
 20
213.3093
  0
SEQEND
  0
ENDBLK
  0
BLOCK
  8
LAYER_1
  2
AIGNBL01010035
 70
64
 10
0
 20
0
 30
0
  3
AIGNBL01010035
  0
POLYLINE
  8
LAYER_1
 40
0.1058
 41
0.1058
 66
1
 10
0
 20
0
 30
0
  0
VERTEX
  8
LAYER_1
 10
200.7085
 20
213.3396
 42
0.02977338033
  0
VERTEX
  8
LAYER_1
 10
200.0555
 20
213.6798
 42
0.01603472863
  0
VERTEX
  8
LAYER_1
 10
199.0064
 20
214.1166
 42
0.02688701711
  0
VERTEX
  8
LAYER_1
 10
196.2871
 20
214.9922
 42
0.02028453974
  0
VERTEX
  8
LAYER_1
 10
195.2269
 20
215.2247
 42
0.05503770525
  0
VERTEX
  8
LAYER_1
 10
194.209
 20
215.303
  0
SEQEND
  0
POLYLINE
  8
LAYER_1
 40
0.1058
 41
0.1058
 66
1
 10
0
 20
0
 30
0
  0
VERTEX
  8
LAYER_1
 10
192.8899
 20
215.2256
 42
0.008306208059
  0
VERTEX
  8
LAYER_1
 10
191.4474
 20
215.4502
 42
0.007400639132
  0
VERTEX
  8
LAYER_1
 10
189.9564
 20
215.6333
 42
0.008556982757
  0
VERTEX
  8
LAYER_1
 10
188.4233
 20
215.773
 42
0.008031176081
  0
VERTEX
  8
LAYER_1
 10
186.8754
 20
215.8688
 42
0.00763821335
  0
VERTEX
  8
LAYER_1
 10
185.3661
 20
215.9152
 42
0.008299565317
  0
VERTEX
  8
LAYER_1
 10
183.8847
 20
215.9129
 42
0.008801630238
  0
VERTEX
  8
LAYER_1
 10
182.4922
 20
215.8616
 42
0.01000944139
  0
VERTEX
  8
LAYER_1
 10
181.1896
 20
215.7624
 42
0.01128745876
  0
VERTEX
  8
LAYER_1
 10
180.1172
 20
215.633
 42
0.01446729354
  0
VERTEX
  8
LAYER_1
 10
179.1436
 20
215.4675
 42
0.01659757236
  0
VERTEX
  8
LAYER_1
 10
178.2992
 20
215.2732
  0
VERTEX
  8
LAYER_1
 10
177.914
 20
215.1614
  0
VERTEX
  8
LAYER_1
 10
177.5637
 20
215.0435
  0
VERTEX
  8
LAYER_1
 10
177.2467
 20
214.9185
  0
VERTEX
  8
LAYER_1
 10
176.967
 20
214.789
  0
VERTEX
  8
LAYER_1
 10
176.7145
 20
214.6487
  0
VERTEX
  8
LAYER_1
 10
176.5026
 20
214.5037
  0
VERTEX
  8
LAYER_1
 10
176.3296
 20
214.3556
  0
VERTEX
  8
LAYER_1
 10
176.1911
 20
214.2004
  0
VERTEX
  8
LAYER_1
 10
176.094
 20
214.0412
 42
0.06431916965
  0
VERTEX
  8
LAYER_1
 10
176.0334
 20
213.8795
  0
SEQEND
  0
POLYLINE
  8
LAYER_1
 40
0.1058
 41
0.1058
 66
1
 10
0
 20
0
 30
0
  0
VERTEX
  8
LAYER_1
 10
176.0313
 20
213.9649
 42
-0.06732083063
  0
VERTEX
  8
LAYER_1
 10
175.9992
 20
214.1533
 42
-0.06424632755
  0
VERTEX
  8
LAYER_1
 10
176.0182
 20
214.3401
 42
-0.06508233769
  0
VERTEX
  8
LAYER_1
 10
176.0892
 20
214.5235
 42
-0.04625070827
  0
VERTEX
  8
LAYER_1
 10
176.2104
 20
214.703
 42
-0.04209386611
  0
VERTEX
  8
LAYER_1
 10
176.3841
 20
214.878
  0
VERTEX
  8
LAYER_1
 10
176.6063
 20
215.0453
  0
VERTEX
  8
LAYER_1
 10
176.8719
 20
215.2008
  0
VERTEX
  8
LAYER_1
 10
177.1861
 20
215.3522
  0
VERTEX
  8
LAYER_1
 10
177.5506
 20
215.4969
  0
VERTEX
  8
LAYER_1
 10
177.9464
 20
215.6268
  0
VERTEX
  8
LAYER_1
 10
178.4008
 20
215.7525
  0
VERTEX
  8
LAYER_1
 10
178.879
 20
215.8642
  0
VERTEX
  8
LAYER_1
 10
179.3944
 20
215.9648
  0
VERTEX
  8
LAYER_1
 10
179.9642
 20
216.0588
 42
-0.01246927662
  0
VERTEX
  8
LAYER_1
 10
181.1803
 20
216.2068
 42
-0.01045486322
  0
VERTEX
  8
LAYER_1
 10
182.484
 20
216.3048
 42
-0.008707344634
  0
VERTEX
  8
LAYER_1
 10
183.8778
 20
216.3558
 42
-0.00848599958
  0
VERTEX
  8
LAYER_1
 10
185.3599
 20
216.3582
 42
-0.007449804707
  0
VERTEX
  8
LAYER_1
 10
186.8696
 20
216.3134
 42
-0.006755148414
  0
VERTEX
  8
LAYER_1
 10
188.4195
 20
216.2188
 42
-0.007536988156
  0
VERTEX
  8
LAYER_1
 10
189.9543
 20
216.0791
 42
-0.007586230074
  0
VERTEX
  8
LAYER_1
 10
191.446
 20
215.8988
 42
-0.0077188579
  0
VERTEX
  8
LAYER_1
 10
192.8881
 20
215.6768
  0
SEQEND
  0
ENDBLK
  0
BLOCK
  8
LAYER_1
  2
AIGNBL01010036
 70
64
 10
0
 20
0
 30
0
  3
AIGNBL01010036
  0
POLYLINE
  8
LAYER_1
 40
0.1058
 41
0.1058
 66
1
 10
0
 20
0
 30
0
  0
VERTEX
  8
LAYER_1
 10
185.836
 20
190.9673
  0
VERTEX
  8
LAYER_1
 10
185.5198
 20
190.9158
  0
SEQEND
  0
ENDBLK
  0
BLOCK
  8
LAYER_1
  2
AIGNBL01010037
 70
64
 10
0
 20
0
 30
0
  3
AIGNBL01010037
  0
POLYLINE
  8
LAYER_1
 40
0.1058
 41
0.1058
 66
1
 10
0
 20
0
 30
0
  0
VERTEX
  8
LAYER_1
 10
194.209
 20
215.7525
 42
-0.04612439763
  0
VERTEX
  8
LAYER_1
 10
194.676
 20
215.7319
 42
-0.02129631882
  0
VERTEX
  8
LAYER_1
 10
195.5141
 20
215.5878
 42
-0.02466591343
  0
VERTEX
  8
LAYER_1
 10
198.4306
 20
214.8132
 42
-0.04427836419
  0
VERTEX
  8
LAYER_1
 10
200.4164
 20
213.9837
 42
-0.03871351857
  0
VERTEX
  8
LAYER_1
 10
201.0813
 20
213.5575
 42
-0.2834709045
  0
VERTEX
  8
LAYER_1
 10
201.1534
 20
213.4441
 42
-0.2965810877
  0
VERTEX
  8
LAYER_1
 10
201.0909
 20
213.3952
 42
-0.04039715038
  0
VERTEX
  8
LAYER_1
 10
200.5376
 20
213.3036
 42
-0.0074682992
  0
VERTEX
  8
LAYER_1
 10
200.014
 20
213.2528
  0
VERTEX
  8
LAYER_1
 10
199.8552
 20
213.1832
 42
-0.04685451367
  0
VERTEX
  8
LAYER_1
 10
200.0105
 20
212.9698
 42
-0.0615116868
  0
VERTEX
  8
LAYER_1
 10
200.1053
 20
212.7564
 42
-0.07231997661
  0
VERTEX
  8
LAYER_1
 10
200.138
 20
212.5507
 42
-0.07762369416
  0
VERTEX
  8
LAYER_1
 10
200.1097
 20
212.346
 42
-0.06758242214
  0
VERTEX
  8
LAYER_1
 10
200.0209
 20
212.1448
 42
-0.05265193549
  0
VERTEX
  8
LAYER_1
 10
199.8738
 20
211.9536
 42
-0.03916181424
  0
VERTEX
  8
LAYER_1
 10
199.6715
 20
211.7714
 42
-0.03331094575
  0
VERTEX
  8
LAYER_1
 10
199.4063
 20
211.5933
  0
VERTEX
  8
LAYER_1
 10
199.08
 20
211.421
  0
VERTEX
  8
LAYER_1
 10
198.7055
 20
211.2638
  0
VERTEX
  8
LAYER_1
 10
198.2756
 20
211.1146
  0
VERTEX
  8
LAYER_1
 10
197.8081
 20
210.9818
  0
VERTEX
  8
LAYER_1
 10
197.271
 20
210.8552
  0
VERTEX
  8
LAYER_1
 10
196.7074
 20
210.7451
  0
VERTEX
  8
LAYER_1
 10
196.1003
 20
210.6474
  0
VERTEX
  8
LAYER_1
 10
195.4523
 20
210.5651
 42
-0.01269371454
  0
VERTEX
  8
LAYER_1
 10
193.9919
 20
210.4347
 42
-0.0103106619
  0
VERTEX
  8
LAYER_1
 10
192.4279
 20
210.3679
 42
-0.009760395494
  0
VERTEX
  8
LAYER_1
 10
190.7467
 20
210.3627
 42
-0.008791839973
  0
VERTEX
  8
LAYER_1
 10
188.9993
 20
210.4206
 42
-0.008680937974
  0
VERTEX
  8
LAYER_1
 10
187.2148
 20
210.5436
 42
-0.008728490751
  0
VERTEX
  8
LAYER_1
 10
185.4733
 20
210.7227
 42
-0.00908937552
  0
VERTEX
  8
LAYER_1
 10
183.7862
 20
210.9571
 42
-0.009721063606
  0
VERTEX
  8
LAYER_1
 10
182.199
 20
211.2412
  0
VERTEX
  8
LAYER_1
 10
181.8035
 20
211.2524
  0
VERTEX
  8
LAYER_1
 10
180.4782
 20
211.1349
 42
-0.04921836602
  0
VERTEX
  8
LAYER_1
 10
179.9669
 20
211.1883
 42
-0.01877723237
  0
VERTEX
  8
LAYER_1
 10
179.1798
 20
211.3924
 42
-0.03431467342
  0
VERTEX
  8
LAYER_1
 10
176.669
 20
212.2153
 42
-0.02053766448
  0
VERTEX
  8
LAYER_1
 10
176.0168
 20
212.5133
 42
-0.03928699536
  0
VERTEX
  8
LAYER_1
 10
175.2649
 20
212.9437
 42
-0.06476396965
  0
VERTEX
  8
LAYER_1
 10
174.7139
 20
213.438
 42
-0.1709864916
  0
VERTEX
  8
LAYER_1
 10
174.5823
 20
213.664
 42
-0.2655519636
  0
VERTEX
  8
LAYER_1
 10
174.6154
 20
213.7308
 42
-0.1125913849
  0
VERTEX
  8
LAYER_1
 10
174.7474
 20
213.7731
 42
-0.004281096782
  0
VERTEX
  8
LAYER_1
 10
175.0198
 20
213.8038
  0
VERTEX
  8
LAYER_1
 10
175.8356
 20
213.8979
  0
SEQEND
  0
ENDBLK
  0
ENDSEC
  0
SECTION
  2
ENTITIES
  0
TEXT
  8
LAYER_1
 10
-26.2556
 20
43.1712
 11
-26.2556
 21
43.1712
 40
3.2995
 41
0.5
  1
仕様
  0
POLYLINE
  8
LAYER_1
 40
0.3528
 41
0.3528
 66
1
 10
0
 20
0
 30
0
  0
VERTEX
  8
LAYER_1
 10
250.6748
 20
51.9507
  0
VERTEX
  8
LAYER_1
 10
-29.3178
 20
51.9507
  0
SEQEND
  0
INSERT
  8
LAYER_1
  2
AIGNBL01010002
 10
0
 20
0
 30
0
  0
POLYLINE
  8
LAYER_1
 40
0.3528
 41
0.3528
 66
1
 10
0
 20
0
 30
0
  0
VERTEX
  8
LAYER_1
 10
-29.3178
 20
229.3369
  0
VERTEX
  8
LAYER_1
 10
-29.3178
 20
34.3283
  0
VERTEX
  8
LAYER_1
 10
250.6748
 20
34.3283
  0
VERTEX
  8
LAYER_1
 10
250.6748
 20
229.3369
  0
VERTEX
  8
LAYER_1
 10
-29.3178
 20
229.3369
  0
SEQEND
  0
POLYLINE
  8
LAYER_1
 40
0.3528
 41
0.3528
 66
1
 10
0
 20
0
 30
0
  0
VERTEX
  8
LAYER_1
 10
250.6748
 20
60.4597
  0
VERTEX
  8
LAYER_1
 10
-29.3178
 20
60.4597
  0
SEQEND
  0
POLYLINE
  8
LAYER_1
 40
0.3528
 41
0.3528
 66
1
 10
0
 20
0
 30
0
  0
VERTEX
  8
LAYER_1
 10
250.6748
 20
43.4416
  0
VERTEX
  8
LAYER_1
 10
143.534
 20
43.4416
  0
SEQEND
  0
TEXT
  8
LAYER_1
 10
188.1725
 20
45.7175
 11
188.1725
 21
45.7175
 40
3.7615
 41
0.5
  1
-
  0
TEXT
  8
LAYER_1
 10
182.8808
 20
49.4743
 11
182.8808
 21
49.4743
 40
2.1997
 41
0.5
  1
縮尺
  0
POLYLINE
  8
LAYER_1
 40
0.3528
 41
0.3528
 66
1
 10
0
 20
0
 30
0
  0
VERTEX
  8
LAYER_1
 10
181.3526
 20
43.4416
  0
VERTEX
  8
LAYER_1
 10
181.3526
 20
51.9507
  0
SEQEND
  0
TEXT
  8
LAYER_1
 10
144.2327
 20
57.9834
 11
144.2327
 21
57.9834
 40
2.1997
 41
0.5
  1
品番
  0
TEXT
  8
LAYER_1
 10
-28.1609
 20
57.9834
 11
-28.1609
 21
57.9834
 40
2.1997
 41
0.5
  1
品名
  0
TEXT
  8
LAYER_1
 10
144.2327
 20
49.4743
 11
144.2327
 21
49.4743
 40
2.1997
 41
0.5
  1
重量
  0
TEXT
  8
LAYER_1
 10
150.2547
 20
54.1514
 11
150.2547
 21
54.1514
 40
5.9385
 41
0.5
  1
CIE-CATOV/
  0
TEXT
  8
LAYER_1
 10
149.5454
 20
45.7175
 11
149.5454
 21
45.7175
 40
3.7615
 41
0.5
  1
35.6kg
  0
POLYLINE
  8
LAYER_1
 40
0.3528
 41
0.3528
 66
1
 10
0
 20
0
 30
0
  0
VERTEX
  8
LAYER_1
 10
143.534
 20
34.9539
  0
VERTEX
  8
LAYER_1
 10
143.534
 20
60.4597
  0
SEQEND
  0
TEXT
  8
LAYER_1
 10
-15.3768
 20
54.8911
 11
-15.3768
 21
54.8911
 40
4.1465
 41
0.5
  1
カティーノ自立式洗面台700ｍｍ
  0
INSERT
  8
LAYER_1
  2
AIGNBL01010003
 10
0
 20
0
 30
0
  0
TEXT
  8
LAYER_1
 10
-15.6835
 20
43.9625
 11
-15.6835
 21
43.9625
 40
3.5541
 41
0.5
  1
●サイズ：W700×D500×H830mm●排水金具別途●床固定ボルト付属
  0
TEXT
  8
LAYER_1
 10
-15.6835
 20
39.2124
 11
-15.6835
 21
39.2124
 40
3.1177
 41
0.5
  1
●設置方法：床固定
  0
TEXT
  8
LAYER_1
 10
237.263
 20
63.2582
 11
237.263
 21
63.2582
 40
2.9618
 41
0.5
  1
単位：mm
  0
TEXT
  8
LAYER_1
 10
6.5217
 20
219.7385
 11
6.5217
 21
219.7385
 40
2.5981
 41
0.5
  1
※陶器製品は寸法公差が発生します。
  0
TEXT
  8
LAYER_1
 10
176.0254
 20
39.5359
 11
176.0254
 21
39.5359
 40
3.3853
 41
0.5
  1
●TEL 0120-65-1232●FAX 06-6532-1580
  0
TEXT
  8
LAYER_1
 10
176.0254
 20
36.0212
 11
176.0254
 21
36.0212
 40
3.3853
 41
0.5
  1
hits@hiratatile.co.jp
  0
TEXT
  8
LAYER_1
 10
240.3591
 20
225.8432
 11
240.3591
 21
225.8432
 40
2.0732
 41
0.5
  1
170628RT
  0
INSERT
  8
LAYER_1
  2
AIGNBL01010006
 10
0
 20
0
 30
0
  0
POLYLINE
  8
LAYER_1
 40
0.1058
 41
0.1058
 66
1
 10
0
 20
0
 30
0
  0
VERTEX
  8
LAYER_1
 10
168.2027
 20
134.4469
 42
0.3636961546
  0
VERTEX
  8
LAYER_1
 10
168.4011
 20
134.2712
  0
SEQEND
  0
POLYLINE
  8
LAYER_1
 40
0.1058
 41
0.1058
 66
1
 10
0
 20
0
 30
0
  0
VERTEX
  8
LAYER_1
 10
166.3085
 20
149.9151
  0
VERTEX
  8
LAYER_1
 10
168.2027
 20
134.4469
  0
SEQEND
  0
POLYLINE
  8
LAYER_1
 40
0.1058
 41
0.1058
 66
1
 10
0
 20
0
 30
0
  0
VERTEX
  8
LAYER_1
 10
166.1494
 20
150.9162
 42
0.270813509
  0
VERTEX
  8
LAYER_1
 10
165.7125
 20
151.1718
  0
SEQEND
  0
POLYLINE
  8
LAYER_1
 40
0.1058
 41
0.1058
 66
1
 10
0
 20
0
 30
0
  0
VERTEX
  8
LAYER_1
 10
161.4234
 20
151.1718
  0
VERTEX
  8
LAYER_1
 10
165.7118
 20
151.1718
  0
SEQEND
  0
POLYLINE
  8
LAYER_1
 40
0.1058
 41
0.1058
 66
1
 10
0
 20
0
 30
0
  0
VERTEX
  8
LAYER_1
 10
161.2229
 20
151.3723
 42
0.4141812563
  0
VERTEX
  8
LAYER_1
 10
161.4234
 20
151.1718
  0
SEQEND
  0
POLYLINE
  8
LAYER_1
 40
0.1058
 41
0.1058
 66
1
 10
0
 20
0
 30
0
  0
VERTEX
  8
LAYER_1
 10
211.0245
 20
151.1718
 42
0.3952257693
  0
VERTEX
  8
LAYER_1
 10
211.2243
 20
151.3723
  0
SEQEND
  0
POLYLINE
  8
LAYER_1
 40
0.1058
 41
0.1058
 66
1
 10
0
 20
0
 30
0
  0
VERTEX
  8
LAYER_1
 10
206.7354
 20
151.1718
  0
VERTEX
  8
LAYER_1
 10
211.0245
 20
151.1718
  0
SEQEND
  0
POLYLINE
  8
LAYER_1
 40
0.1058
 41
0.1058
 66
1
 10
0
 20
0
 30
0
  0
VERTEX
  8
LAYER_1
 10
206.7354
 20
151.1718
 42
0.2644483687
  0
VERTEX
  8
LAYER_1
 10
206.2978
 20
150.9155
  0
SEQEND
  0
POLYLINE
  8
LAYER_1
 40
0.1058
 41
0.1058
 66
1
 10
0
 20
0
 30
0
  0
VERTEX
  8
LAYER_1
 10
199.8865
 20
134.4469
  0
VERTEX
  8
LAYER_1
 10
200.6803
 20
139.8783
  0
SEQEND
  0
POLYLINE
  8
LAYER_1
 40
0.1058
 41
0.1058
 66
1
 10
0
 20
0
 30
0
  0
VERTEX
  8
LAYER_1
 10
199.6888
 20
134.2712
 42
0.3616495539
  0
VERTEX
  8
LAYER_1
 10
199.8865
 20
134.4469
  0
SEQEND
  0
POLYLINE
  8
LAYER_1
 40
0.1058
 41
0.1058
 66
1
 10
0
 20
0
 30
0
  0
VERTEX
  8
LAYER_1
 10
161.4213
 20
152.2715
  0
VERTEX
  8
LAYER_1
 10
211.0245
 20
152.2715
  0
SEQEND
  0
POLYLINE
  8
LAYER_1
 40
0.1058
 41
0.1058
 66
1
 10
0
 20
0
 30
0
 70
1
  0
VERTEX
  8
LAYER_1
 10
205.2381
 20
69.4132
  0
VERTEX
  8
LAYER_1
 10
204.7393
 20
69.4132
  0
VERTEX
  8
LAYER_1
 10
204.7393
 20
69.2698
  0
VERTEX
  8
LAYER_1
 10
205.2381
 20
69.2698
  0
SEQEND
  0
POLYLINE
  8
LAYER_1
 40
0.1058
 41
0.1058
 66
1
 10
0
 20
0
 30
0
 70
1
  0
VERTEX
  8
LAYER_1
 10
167.2098
 20
69.4132
  0
VERTEX
  8
LAYER_1
 10
167.7107
 20
69.4132
  0
VERTEX
  8
LAYER_1
 10
167.7107
 20
69.2705
  0
VERTEX
  8
LAYER_1
 10
167.2098
 20
69.2705
  0
SEQEND
  0
POLYLINE
  8
LAYER_1
 40
0.1058
 41
0.1058
 66
1
 10
0
 20
0
 30
0
  0
VERTEX
  8
LAYER_1
 10
186.2239
 20
97.7704
  0
VERTEX
  8
LAYER_1
 10
186.2239
 20
94.7711
  0
SEQEND
  0
POLYLINE
  8
LAYER_1
 40
0.1058
 41
0.1058
 66
1
 10
0
 20
0
 30
0
  0
VERTEX
  8
LAYER_1
 10
170.0451
 20
94.7711
  0
VERTEX
  8
LAYER_1
 10
202.4042
 20
94.7711
  0
SEQEND
  0
POLYLINE
  8
LAYER_1
 40
0.1058
 41
0.1058
 66
1
 10
0
 20
0
 30
0
  0
VERTEX
  8
LAYER_1
 10
203.3729
 20
69.4132
  0
VERTEX
  8
LAYER_1
 10
206.3426
 20
69.4132
  0
SEQEND
  0
POLYLINE
  8
LAYER_1
 40
0.1058
 41
0.1058
 66
1
 10
0
 20
0
 30
0
  0
VERTEX
  8
LAYER_1
 10
203.8642
 20
134.2712
  0
VERTEX
  8
LAYER_1
 10
204.0475
 20
134.2712
  0
SEQEND
  0
POLYLINE
  8
LAYER_1
 40
0.1058
 41
0.1058
 66
1
 10
0
 20
0
 30
0
  0
VERTEX
  8
LAYER_1
 10
171.5534
 20
134.2712
  0
VERTEX
  8
LAYER_1
 10
199.6888
 20
134.2712
  0
SEQEND
  0
POLYLINE
  8
LAYER_1
 40
0.1058
 41
0.1058
 66
1
 10
0
 20
0
 30
0
  0
VERTEX
  8
LAYER_1
 10
168.4011
 20
134.2712
  0
VERTEX
  8
LAYER_1
 10
168.5878
 20
134.2712
  0
SEQEND
  0
POLYLINE
  8
LAYER_1
 40
0.1058
 41
0.1058
 66
1
 10
0
 20
0
 30
0
  0
VERTEX
  8
LAYER_1
 10
169.0756
 20
69.4132
  0
VERTEX
  8
LAYER_1
 10
166.1053
 20
69.4132
  0
SEQEND
  0
POLYLINE
  8
LAYER_1
 40
0.1058
 41
0.1058
 66
1
 10
0
 20
0
 30
0
 70
1
  0
VERTEX
  8
LAYER_1
 10
161.3745
 20
149.9151
  0
VERTEX
  8
LAYER_1
 10
211.0748
 20
149.9151
  0
VERTEX
  8
LAYER_1
 10
211.0748
 20
150.9162
  0
VERTEX
  8
LAYER_1
 10
161.3745
 20
150.9162
  0
SEQEND
  0
POLYLINE
  8
LAYER_1
 40
0.1058
 41
0.1058
 66
1
 10
0
 20
0
 30
0
  0
VERTEX
  8
LAYER_1
 10
205.2395
 20
98.2727
  0
VERTEX
  8
LAYER_1
 10
207.0247
 20
98.2707
  0
SEQEND
  0
POLYLINE
  8
LAYER_1
 40
0.1058
 41
0.1058
 66
1
 10
0
 20
0
 30
0
  0
VERTEX
  8
LAYER_1
 10
170.1774
 20
98.2707
  0
VERTEX
  8
LAYER_1
 10
202.2698
 20
98.2707
  0
SEQEND
  0
POLYLINE
  8
LAYER_1
 40
0.1058
 41
0.1058
 66
1
 10
0
 20
0
 30
0
  0
VERTEX
  8
LAYER_1
 10
165.4238
 20
98.2707
  0
VERTEX
  8
LAYER_1
 10
167.2098
 20
98.2658
  0
SEQEND
  0
POLYLINE
  8
LAYER_1
 40
0.1058
 41
0.1058
 66
1
 10
0
 20
0
 30
0
  0
VERTEX
  8
LAYER_1
 10
206.725
 20
97.7704
  0
VERTEX
  8
LAYER_1
 10
205.2588
 20
97.7704
  0
SEQEND
  0
POLYLINE
  8
LAYER_1
 40
0.1058
 41
0.1058
 66
1
 10
0
 20
0
 30
0
  0
VERTEX
  8
LAYER_1
 10
202.2319
 20
99.2711
  0
VERTEX
  8
LAYER_1
 10
186.153
 20
99.2711
  0
SEQEND
  0
POLYLINE
  8
LAYER_1
 40
0.1058
 41
0.1058
 66
1
 10
0
 20
0
 30
0
  0
VERTEX
  8
LAYER_1
 10
206.55
 20
97.7704
  0
VERTEX
  8
LAYER_1
 10
206.7243
 20
97.7704
  0
VERTEX
  8
LAYER_1
 10
206.7243
 20
97.9709
 42
-0.3939501462
  0
VERTEX
  8
LAYER_1
 10
207.0247
 20
98.2707
  0
VERTEX
  8
LAYER_1
 10
208.4255
 20
98.2707
 42
0.3937212532
  0
VERTEX
  8
LAYER_1
 10
208.7239
 20
98.5711
  0
VERTEX
  8
LAYER_1
 10
208.7239
 20
98.9707
 42
0.3911275278
  0
VERTEX
  8
LAYER_1
 10
208.4255
 20
99.2711
  0
VERTEX
  8
LAYER_1
 10
205.2016
 20
99.2711
  0
SEQEND
  0
POLYLINE
  8
LAYER_1
 40
0.1058
 41
0.1058
 66
1
 10
0
 20
0
 30
0
  0
VERTEX
  8
LAYER_1
 10
167.2484
 20
99.2711
  0
VERTEX
  8
LAYER_1
 10
164.0238
 20
99.2711
  0
SEQEND
  0
POLYLINE
  8
LAYER_1
 40
0.1058
 41
0.1058
 66
1
 10
0
 20
0
 30
0
  0
VERTEX
  8
LAYER_1
 10
165.7236
 20
97.7704
  0
VERTEX
  8
LAYER_1
 10
167.1905
 20
97.7704
  0
SEQEND
  0
POLYLINE
  8
LAYER_1
 40
0.1058
 41
0.1058
 66
1
 10
0
 20
0
 30
0
  0
VERTEX
  8
LAYER_1
 10
170.2167
 20
99.2711
  0
VERTEX
  8
LAYER_1
 10
186.153
 20
99.2711
  0
SEQEND
  0
POLYLINE
  8
LAYER_1
 40
0.1058
 41
0.1058
 66
1
 10
0
 20
0
 30
0
  0
VERTEX
  8
LAYER_1
 10
166.0384
 20
97.7704
  0
VERTEX
  8
LAYER_1
 10
165.7236
 20
97.7704
  0
VERTEX
  8
LAYER_1
 10
165.7236
 20
97.9709
 42
0.4142872273
  0
VERTEX
  8
LAYER_1
 10
165.4238
 20
98.2707
  0
VERTEX
  8
LAYER_1
 10
164.0238
 20
98.2707
 42
-0.3935668293
  0
VERTEX
  8
LAYER_1
 10
163.724
 20
98.5711
  0
VERTEX
  8
LAYER_1
 10
163.724
 20
98.9707
 42
-0.3922121218
  0
VERTEX
  8
LAYER_1
 10
164.0238
 20
99.2711
  0
VERTEX
  8
LAYER_1
 10
166.0956
 20
99.2711
  0
SEQEND
  0
POLYLINE
  8
LAYER_1
 40
0.1058
 41
0.1058
 66
1
 10
0
 20
0
 30
0
  0
VERTEX
  8
LAYER_1
 10
202.2884
 20
97.7704
  0
VERTEX
  8
LAYER_1
 10
170.1588
 20
97.7704
  0
SEQEND
  0
POLYLINE
  8
LAYER_1
 40
0.1058
 41
0.1058
 66
1
 10
0
 20
0
 30
0
  0
VERTEX
  8
LAYER_1
 10
161.2229
 20
151.3661
  0
VERTEX
  8
LAYER_1
 10
161.2229
 20
152.0724
  0
SEQEND
  0
POLYLINE
  8
LAYER_1
 40
0.1058
 41
0.1058
 66
1
 10
0
 20
0
 30
0
  0
VERTEX
  8
LAYER_1
 10
161.4213
 20
152.2715
  0
VERTEX
  8
LAYER_1
 10
161.4234
 20
152.2715
  0
SEQEND
  0
POLYLINE
  8
LAYER_1
 40
0.1058
 41
0.1058
 66
1
 10
0
 20
0
 30
0
  0
VERTEX
  8
LAYER_1
 10
161.4213
 20
152.2715
 42
0.412307345
  0
VERTEX
  8
LAYER_1
 10
161.2229
 20
152.0717
  0
SEQEND
  0
POLYLINE
  8
LAYER_1
 40
0.1058
 41
0.1058
 66
1
 10
0
 20
0
 30
0
  0
VERTEX
  8
LAYER_1
 10
211.2243
 20
152.0724
 42
0.4141729377
  0
VERTEX
  8
LAYER_1
 10
211.0245
 20
152.2722
  0
SEQEND
  0
POLYLINE
  8
LAYER_1
 40
0.1058
 41
0.1058
 66
1
 10
0
 20
0
 30
0
  0
VERTEX
  8
LAYER_1
 10
161.2229
 20
151.3723
 42
0.4141812563
  0
VERTEX
  8
LAYER_1
 10
161.4234
 20
151.1718
  0
SEQEND
  0
POLYLINE
  8
LAYER_1
 40
0.1058
 41
0.1058
 66
1
 10
0
 20
0
 30
0
  0
VERTEX
  8
LAYER_1
 10
211.0245
 20
151.1718
 42
0.3952257693
  0
VERTEX
  8
LAYER_1
 10
211.2243
 20
151.3723
  0
SEQEND
  0
POLYLINE
  8
LAYER_1
 40
0.1058
 41
0.1058
 66
1
 10
0
 20
0
 30
0
  0
VERTEX
  8
LAYER_1
 10
169.9659
 20
150.9162
  0
VERTEX
  8
LAYER_1
 10
169.9659
 20
151.1718
  0
SEQEND
  0
POLYLINE
  8
LAYER_1
 40
0.1058
 41
0.1058
 66
1
 10
0
 20
0
 30
0
  0
VERTEX
  8
LAYER_1
 10
170.6666
 20
151.1718
  0
VERTEX
  8
LAYER_1
 10
170.6666
 20
150.9155
  0
SEQEND
  0
POLYLINE
  8
LAYER_1
 40
0.1058
 41
0.1058
 66
1
 10
0
 20
0
 30
0
  0
VERTEX
  8
LAYER_1
 10
201.782
 20
150.9162
  0
VERTEX
  8
LAYER_1
 10
201.782
 20
151.1718
  0
SEQEND
  0
POLYLINE
  8
LAYER_1
 40
0.1058
 41
0.1058
 66
1
 10
0
 20
0
 30
0
  0
VERTEX
  8
LAYER_1
 10
202.482
 20
151.1718
  0
VERTEX
  8
LAYER_1
 10
202.482
 20
150.9155
  0
SEQEND
  0
POLYLINE
  8
LAYER_1
 40
0.1058
 41
0.1058
 66
1
 10
0
 20
0
 30
0
  0
VERTEX
  8
LAYER_1
 10
211.2243
 20
151.3723
  0
VERTEX
  8
LAYER_1
 10
211.2243
 20
152.0724
  0
SEQEND
  0
POLYLINE
  8
LAYER_1
 40
0.1058
 41
0.1058
 66
1
 10
0
 20
0
 30
0
  0
VERTEX
  8
LAYER_1
 10
161.4234
 20
151.1718
  0
VERTEX
  8
LAYER_1
 10
211.0245
 20
151.1718
  0
SEQEND
  0
POLYLINE
  8
LAYER_1
 40
0.1058
 41
0.1058
 66
1
 10
0
 20
0
 30
0
  0
VERTEX
  8
LAYER_1
 10
169.9659
 20
151.1718
  0
VERTEX
  8
LAYER_1
 10
170.6659
 20
151.1718
  0
SEQEND
  0
POLYLINE
  8
LAYER_1
 40
0.1058
 41
0.1058
 66
1
 10
0
 20
0
 30
0
  0
VERTEX
  8
LAYER_1
 10
201.782
 20
151.1718
  0
VERTEX
  8
LAYER_1
 10
202.4814
 20
151.1718
  0
SEQEND
  0
POLYLINE
  8
LAYER_1
 40
0.1058
 41
0.1058
 66
1
 10
0
 20
0
 30
0
  0
VERTEX
  8
LAYER_1
 10
170.0361
 20
149.9151
  0
VERTEX
  8
LAYER_1
 10
166.9548
 20
69.4132
  0
SEQEND
  0
POLYLINE
  8
LAYER_1
 40
0.1058
 41
0.1058
 66
1
 10
0
 20
0
 30
0
  0
VERTEX
  8
LAYER_1
 10
169.1873
 20
149.9151
  0
VERTEX
  8
LAYER_1
 10
166.1053
 20
69.4132
  0
SEQEND
  0
POLYLINE
  8
LAYER_1
 40
0.1058
 41
0.1058
 66
1
 10
0
 20
0
 30
0
  0
VERTEX
  8
LAYER_1
 10
202.4173
 20
149.9151
  0
VERTEX
  8
LAYER_1
 10
205.4937
 20
69.4132
  0
SEQEND
  0
POLYLINE
  8
LAYER_1
 40
0.1058
 41
0.1058
 66
1
 10
0
 20
0
 30
0
  0
VERTEX
  8
LAYER_1
 10
203.2661
 20
149.9151
  0
VERTEX
  8
LAYER_1
 10
206.3426
 20
69.4132
  0
SEQEND
  0
POLYLINE
  8
LAYER_1
 40
0.1058
 41
0.1058
 66
1
 10
0
 20
0
 30
0
  0
VERTEX
  8
LAYER_1
 10
200.2965
 20
149.9151
  0
VERTEX
  8
LAYER_1
 10
203.3729
 20
69.4132
  0
SEQEND
  0
POLYLINE
  8
LAYER_1
 40
0.1058
 41
0.1058
 66
1
 10
0
 20
0
 30
0
  0
VERTEX
  8
LAYER_1
 10
172.1521
 20
149.9151
  0
VERTEX
  8
LAYER_1
 10
169.0756
 20
69.4132
  0
SEQEND
  0
POLYLINE
  8
LAYER_1
 40
0.1058
 41
0.1058
 66
1
 10
0
 20
0
 30
0
  0
VERTEX
  8
LAYER_1
 10
166.1053
 20
69.4132
  0
VERTEX
  8
LAYER_1
 10
166.9548
 20
69.4132
  0
VERTEX
  8
LAYER_1
 10
169.0756
 20
69.4132
  0
SEQEND
  0
POLYLINE
  8
LAYER_1
 40
0.1058
 41
0.1058
 66
1
 10
0
 20
0
 30
0
  0
VERTEX
  8
LAYER_1
 10
60.5861
 20
98.2707
  0
VERTEX
  8
LAYER_1
 10
58.4433
 20
98.2707
  0
SEQEND
  0
POLYLINE
  8
LAYER_1
 40
0.1058
 41
0.1058
 66
1
 10
0
 20
0
 30
0
  0
VERTEX
  8
LAYER_1
 10
115.0069
 20
98.2707
  0
VERTEX
  8
LAYER_1
 10
63.4821
 20
98.2707
  0
SEQEND
  0
POLYLINE
  8
LAYER_1
 40
0.1058
 41
0.1058
 66
1
 10
0
 20
0
 30
0
  0
VERTEX
  8
LAYER_1
 10
120.045
 20
98.2707
  0
VERTEX
  8
LAYER_1
 10
117.9022
 20
98.2707
  0
SEQEND
  0
POLYLINE
  8
LAYER_1
 40
0.1058
 41
0.1058
 66
1
 10
0
 20
0
 30
0
  0
VERTEX
  8
LAYER_1
 10
121.4465
 20
99.2711
  0
VERTEX
  8
LAYER_1
 10
117.8588
 20
99.2711
  0
SEQEND
  0
POLYLINE
  8
LAYER_1
 40
0.1058
 41
0.1058
 66
1
 10
0
 20
0
 30
0
  0
VERTEX
  8
LAYER_1
 10
114.9635
 20
99.2711
  0
VERTEX
  8
LAYER_1
 10
63.5248
 20
99.2711
  0
SEQEND
  0
POLYLINE
  8
LAYER_1
 40
0.1058
 41
0.1058
 66
1
 10
0
 20
0
 30
0
  0
VERTEX
  8
LAYER_1
 10
117.9236
 20
97.7704
  0
VERTEX
  8
LAYER_1
 10
119.746
 20
97.7704
  0
VERTEX
  8
LAYER_1
 10
119.746
 20
97.9709
 42
-0.3937659527
  0
VERTEX
  8
LAYER_1
 10
120.045
 20
98.2707
  0
VERTEX
  8
LAYER_1
 10
121.4465
 20
98.2707
 42
0.3937212532
  0
VERTEX
  8
LAYER_1
 10
121.7449
 20
98.5711
  0
VERTEX
  8
LAYER_1
 10
121.7449
 20
98.9707
 42
0.3911275278
  0
VERTEX
  8
LAYER_1
 10
121.4465
 20
99.2711
  0
VERTEX
  8
LAYER_1
 10
118.0097
 20
99.2711
  0
SEQEND
  0
POLYLINE
  8
LAYER_1
 40
0.1058
 41
0.1058
 66
1
 10
0
 20
0
 30
0
  0
VERTEX
  8
LAYER_1
 10
63.4607
 20
97.7704
  0
VERTEX
  8
LAYER_1
 10
115.0276
 20
97.7704
  0
SEQEND
  0
POLYLINE
  8
LAYER_1
 40
0.1058
 41
0.1058
 66
1
 10
0
 20
0
 30
0
  0
VERTEX
  8
LAYER_1
 10
58.7437
 20
97.7704
  0
VERTEX
  8
LAYER_1
 10
60.5655
 20
97.7704
  0
SEQEND
  0
POLYLINE
  8
LAYER_1
 40
0.1058
 41
0.1058
 66
1
 10
0
 20
0
 30
0
  0
VERTEX
  8
LAYER_1
 10
63.5248
 20
99.2711
  0
VERTEX
  8
LAYER_1
 10
87.7445
 20
99.2711
  0
SEQEND
  0
POLYLINE
  8
LAYER_1
 40
0.1058
 41
0.1058
 66
1
 10
0
 20
0
 30
0
  0
VERTEX
  8
LAYER_1
 10
60.4146
 20
97.7704
  0
VERTEX
  8
LAYER_1
 10
58.7437
 20
97.7704
  0
VERTEX
  8
LAYER_1
 10
58.7437
 20
97.9709
 42
0.393950146
  0
VERTEX
  8
LAYER_1
 10
58.4433
 20
98.2707
  0
VERTEX
  8
LAYER_1
 10
57.0432
 20
98.2707
 42
-0.4142388264
  0
VERTEX
  8
LAYER_1
 10
56.7428
 20
98.5711
  0
VERTEX
  8
LAYER_1
 10
56.7428
 20
98.9707
 42
-0.4142146205
  0
VERTEX
  8
LAYER_1
 10
57.0432
 20
99.2711
  0
VERTEX
  8
LAYER_1
 10
60.6295
 20
99.2711
  0
SEQEND
  0
POLYLINE
  8
LAYER_1
 40
0.1058
 41
0.1058
 66
1
 10
0
 20
0
 30
0
  0
VERTEX
  8
LAYER_1
 10
87.7445
 20
97.7704
  0
VERTEX
  8
LAYER_1
 10
63.4607
 20
97.7704
  0
SEQEND
  0
POLYLINE
  8
LAYER_1
 40
0.1058
 41
0.1058
 66
1
 10
0
 20
0
 30
0
 70
1
  0
VERTEX
  8
LAYER_1
 10
118.0372
 20
69.4132
  0
VERTEX
  8
LAYER_1
 10
117.5384
 20
69.4132
  0
VERTEX
  8
LAYER_1
 10
117.5384
 20
69.2705
  0
VERTEX
  8
LAYER_1
 10
118.0372
 20
69.2705
  0
SEQEND
  0
POLYLINE
  8
LAYER_1
 40
0.1058
 41
0.1058
 66
1
 10
0
 20
0
 30
0
 70
1
  0
VERTEX
  8
LAYER_1
 10
60.449
 20
69.4132
  0
VERTEX
  8
LAYER_1
 10
60.9493
 20
69.4132
  0
VERTEX
  8
LAYER_1
 10
60.9493
 20
69.2705
  0
VERTEX
  8
LAYER_1
 10
60.449
 20
69.2705
  0
SEQEND
  0
POLYLINE
  8
LAYER_1
 40
0.1058
 41
0.1058
 66
1
 10
0
 20
0
 30
0
  0
VERTEX
  8
LAYER_1
 10
60.2389
 20
69.4132
  0
VERTEX
  8
LAYER_1
 10
63.7026
 20
149.9151
  0
SEQEND
  0
POLYLINE
  8
LAYER_1
 40
0.1058
 41
0.1058
 66
1
 10
0
 20
0
 30
0
  0
VERTEX
  8
LAYER_1
 10
59.1323
 20
150.9162
  0
VERTEX
  8
LAYER_1
 10
59.0634
 20
151.0471
  0
SEQEND
  0
POLYLINE
  8
LAYER_1
 40
0.1058
 41
0.1058
 66
1
 10
0
 20
0
 30
0
  0
VERTEX
  8
LAYER_1
 10
59.1688
 20
150.9162
 42
0.2606258115
  0
VERTEX
  8
LAYER_1
 10
58.743
 20
151.1718
  0
SEQEND
  0
POLYLINE
  8
LAYER_1
 40
0.1058
 41
0.1058
 66
1
 10
0
 20
0
 30
0
  0
VERTEX
  8
LAYER_1
 10
117.0685
 20
134.2712
  0
VERTEX
  8
LAYER_1
 10
116.3533
 20
134.2712
  0
SEQEND
  0
POLYLINE
  8
LAYER_1
 40
0.1058
 41
0.1058
 66
1
 10
0
 20
0
 30
0
  0
VERTEX
  8
LAYER_1
 10
117.0685
 20
134.2712
 42
0.3632830094
  0
VERTEX
  8
LAYER_1
 10
117.2662
 20
134.4469
  0
SEQEND
  0
POLYLINE
  8
LAYER_1
 40
0.1058
 41
0.1058
 66
1
 10
0
 20
0
 30
0
  0
VERTEX
  8
LAYER_1
 10
119.1597
 20
149.9151
  0
VERTEX
  8
LAYER_1
 10
117.2662
 20
134.4469
  0
SEQEND
  0
POLYLINE
  8
LAYER_1
 40
0.1058
 41
0.1058
 66
1
 10
0
 20
0
 30
0
  0
VERTEX
  8
LAYER_1
 10
61.2207
 20
134.4469
  0
VERTEX
  8
LAYER_1
 10
59.3287
 20
149.9151
  0
SEQEND
  0
POLYLINE
  8
LAYER_1
 40
0.1058
 41
0.1058
 66
1
 10
0
 20
0
 30
0
  0
VERTEX
  8
LAYER_1
 10
61.2207
 20
134.4469
 42
0.3572143813
  0
VERTEX
  8
LAYER_1
 10
61.4205
 20
134.2712
  0
SEQEND
  0
POLYLINE
  8
LAYER_1
 40
0.1058
 41
0.1058
 66
1
 10
0
 20
0
 30
0
  0
VERTEX
  8
LAYER_1
 10
62.1357
 20
134.2712
  0
VERTEX
  8
LAYER_1
 10
61.4205
 20
134.2712
  0
SEQEND
  0
POLYLINE
  8
LAYER_1
 40
0.1058
 41
0.1058
 66
1
 10
0
 20
0
 30
0
  0
VERTEX
  8
LAYER_1
 10
124.0455
 20
152.2715
  0
VERTEX
  8
LAYER_1
 10
118.7152
 20
152.2715
  0
VERTEX
  8
LAYER_1
 10
118.6753
 20
152.2715
  0
VERTEX
  8
LAYER_1
 10
54.4435
 20
152.2715
  0
SEQEND
  0
POLYLINE
  8
LAYER_1
 40
0.1058
 41
0.1058
 66
1
 10
0
 20
0
 30
0
  0
VERTEX
  8
LAYER_1
 10
124.2453
 20
152.0724
 42
0.414151312
  0
VERTEX
  8
LAYER_1
 10
124.0455
 20
152.2722
  0
SEQEND
  0
POLYLINE
  8
LAYER_1
 40
0.1058
 41
0.1058
 66
1
 10
0
 20
0
 30
0
  0
VERTEX
  8
LAYER_1
 10
124.2453
 20
151.3723
  0
VERTEX
  8
LAYER_1
 10
124.2453
 20
152.0724
  0
SEQEND
  0
POLYLINE
  8
LAYER_1
 40
0.1058
 41
0.1058
 66
1
 10
0
 20
0
 30
0
  0
VERTEX
  8
LAYER_1
 10
124.0455
 20
151.1718
 42
0.3942405976
  0
VERTEX
  8
LAYER_1
 10
124.2453
 20
151.3723
  0
SEQEND
  0
POLYLINE
  8
LAYER_1
 40
0.1058
 41
0.1058
 66
1
 10
0
 20
0
 30
0
  0
VERTEX
  8
LAYER_1
 10
119.7536
 20
151.1718
  0
VERTEX
  8
LAYER_1
 10
119.7563
 20
151.1718
  0
VERTEX
  8
LAYER_1
 10
119.7853
 20
151.1718
  0
VERTEX
  8
LAYER_1
 10
124.0455
 20
151.1718
  0
SEQEND
  0
POLYLINE
  8
LAYER_1
 40
0.1058
 41
0.1058
 66
1
 10
0
 20
0
 30
0
  0
VERTEX
  8
LAYER_1
 10
58.703
 20
151.1718
  0
VERTEX
  8
LAYER_1
 10
58.732
 20
151.1718
  0
VERTEX
  8
LAYER_1
 10
58.7347
 20
151.1718
  0
VERTEX
  8
LAYER_1
 10
58.743
 20
151.1718
  0
VERTEX
  8
LAYER_1
 10
119.7467
 20
151.1718
  0
VERTEX
  8
LAYER_1
 10
119.7536
 20
151.1718
  0
SEQEND
  0
POLYLINE
  8
LAYER_1
 40
0.1058
 41
0.1058
 66
1
 10
0
 20
0
 30
0
  0
VERTEX
  8
LAYER_1
 10
54.4435
 20
151.1718
  0
VERTEX
  8
LAYER_1
 10
58.703
 20
151.1718
  0
SEQEND
  0
POLYLINE
  8
LAYER_1
 40
0.1058
 41
0.1058
 66
1
 10
0
 20
0
 30
0
  0
VERTEX
  8
LAYER_1
 10
54.2437
 20
151.3723
 42
0.3925182535
  0
VERTEX
  8
LAYER_1
 10
54.4435
 20
151.1718
  0
SEQEND
  0
POLYLINE
  8
LAYER_1
 40
0.1058
 41
0.1058
 66
1
 10
0
 20
0
 30
0
  0
VERTEX
  8
LAYER_1
 10
54.2437
 20
152.0724
  0
VERTEX
  8
LAYER_1
 10
54.2437
 20
151.3723
  0
SEQEND
  0
POLYLINE
  8
LAYER_1
 40
0.1058
 41
0.1058
 66
1
 10
0
 20
0
 30
0
  0
VERTEX
  8
LAYER_1
 10
54.4435
 20
152.2715
 42
0.3925465509
  0
VERTEX
  8
LAYER_1
 10
54.2423
 20
152.0717
  0
SEQEND
  0
POLYLINE
  8
LAYER_1
 40
0.1058
 41
0.1058
 66
1
 10
0
 20
0
 30
0
  0
VERTEX
  8
LAYER_1
 10
119.7467
 20
151.1718
 42
0.2244210087
  0
VERTEX
  8
LAYER_1
 10
119.3608
 20
150.9775
  0
SEQEND
  0
POLYLINE
  8
LAYER_1
 40
0.1058
 41
0.1058
 66
1
 10
0
 20
0
 30
0
  0
VERTEX
  8
LAYER_1
 10
119.3608
 20
150.9775
  0
VERTEX
  8
LAYER_1
 10
119.3195
 20
150.9162
  0
SEQEND
  0
POLYLINE
  8
LAYER_1
 40
0.1058
 41
0.1058
 66
1
 10
0
 20
0
 30
0
  0
VERTEX
  8
LAYER_1
 10
123.8953
 20
149.9151
  0
VERTEX
  8
LAYER_1
 10
123.8946
 20
149.9151
  0
SEQEND
  0
POLYLINE
  8
LAYER_1
 40
0.1058
 41
0.1058
 66
1
 10
0
 20
0
 30
0
  0
VERTEX
  8
LAYER_1
 10
123.8953
 20
150.9162
  0
VERTEX
  8
LAYER_1
 10
123.8953
 20
149.9151
  0
SEQEND
  0
POLYLINE
  8
LAYER_1
 40
0.1058
 41
0.1058
 66
1
 10
0
 20
0
 30
0
  0
VERTEX
  8
LAYER_1
 10
54.5931
 20
150.9162
  0
VERTEX
  8
LAYER_1
 10
123.8953
 20
150.9162
  0
SEQEND
  0
POLYLINE
  8
LAYER_1
 40
0.1058
 41
0.1058
 66
1
 10
0
 20
0
 30
0
  0
VERTEX
  8
LAYER_1
 10
54.5931
 20
149.9151
  0
VERTEX
  8
LAYER_1
 10
54.5931
 20
150.9162
  0
SEQEND
  0
POLYLINE
  8
LAYER_1
 40
0.1058
 41
0.1058
 66
1
 10
0
 20
0
 30
0
  0
VERTEX
  8
LAYER_1
 10
123.8946
 20
149.9151
  0
VERTEX
  8
LAYER_1
 10
54.5931
 20
149.9151
  0
SEQEND
  0
POLYLINE
  8
LAYER_1
 40
0.1058
 41
0.1058
 66
1
 10
0
 20
0
 30
0
  0
VERTEX
  8
LAYER_1
 10
114.0699
 20
151.1656
  0
VERTEX
  8
LAYER_1
 10
114.0699
 20
150.9162
  0
SEQEND
  0
POLYLINE
  8
LAYER_1
 40
0.1058
 41
0.1058
 66
1
 10
0
 20
0
 30
0
  0
VERTEX
  8
LAYER_1
 10
113.3705
 20
151.1656
  0
VERTEX
  8
LAYER_1
 10
114.0699
 20
151.1656
  0
SEQEND
  0
POLYLINE
  8
LAYER_1
 40
0.1058
 41
0.1058
 66
1
 10
0
 20
0
 30
0
  0
VERTEX
  8
LAYER_1
 10
113.3705
 20
150.9162
  0
VERTEX
  8
LAYER_1
 10
113.3705
 20
151.1656
  0
SEQEND
  0
POLYLINE
  8
LAYER_1
 40
0.1058
 41
0.1058
 66
1
 10
0
 20
0
 30
0
  0
VERTEX
  8
LAYER_1
 10
65.1185
 20
151.1656
  0
VERTEX
  8
LAYER_1
 10
65.1185
 20
150.9162
  0
SEQEND
  0
POLYLINE
  8
LAYER_1
 40
0.1058
 41
0.1058
 66
1
 10
0
 20
0
 30
0
  0
VERTEX
  8
LAYER_1
 10
64.4185
 20
151.1656
  0
VERTEX
  8
LAYER_1
 10
65.1185
 20
151.1656
  0
SEQEND
  0
POLYLINE
  8
LAYER_1
 40
0.1058
 41
0.1058
 66
1
 10
0
 20
0
 30
0
  0
VERTEX
  8
LAYER_1
 10
64.4185
 20
150.9162
  0
VERTEX
  8
LAYER_1
 10
64.4185
 20
151.1656
  0
SEQEND
  0
POLYLINE
  8
LAYER_1
 40
0.1058
 41
0.1058
 66
1
 10
0
 20
0
 30
0
  0
VERTEX
  8
LAYER_1
 10
113.4573
 20
134.2712
  0
VERTEX
  8
LAYER_1
 10
65.031
 20
134.2712
  0
SEQEND
  0
POLYLINE
  8
LAYER_1
 40
0.1058
 41
0.1058
 66
1
 10
0
 20
0
 30
0
  0
VERTEX
  8
LAYER_1
 10
78.0982
 20
94.7711
  0
VERTEX
  8
LAYER_1
 10
78.0982
 20
97.7704
  0
SEQEND
  0
POLYLINE
  8
LAYER_1
 40
0.1058
 41
0.1058
 66
1
 10
0
 20
0
 30
0
  0
VERTEX
  8
LAYER_1
 10
116.2485
 20
69.4132
  0
VERTEX
  8
LAYER_1
 10
112.7835
 20
149.9151
  0
SEQEND
  0
POLYLINE
  8
LAYER_1
 40
0.1058
 41
0.1058
 66
1
 10
0
 20
0
 30
0
  0
VERTEX
  8
LAYER_1
 10
118.2495
 20
69.4132
  0
VERTEX
  8
LAYER_1
 10
116.2485
 20
69.4132
  0
SEQEND
  0
POLYLINE
  8
LAYER_1
 40
0.1058
 41
0.1058
 66
1
 10
0
 20
0
 30
0
  0
VERTEX
  8
LAYER_1
 10
114.7864
 20
149.9151
  0
VERTEX
  8
LAYER_1
 10
118.2501
 20
69.4132
  0
SEQEND
  0
POLYLINE
  8
LAYER_1
 40
0.1058
 41
0.1058
 66
1
 10
0
 20
0
 30
0
  0
VERTEX
  8
LAYER_1
 10
119.1445
 20
69.4132
  0
VERTEX
  8
LAYER_1
 10
118.2495
 20
69.4132
  0
SEQEND
  0
POLYLINE
  8
LAYER_1
 40
0.1058
 41
0.1058
 66
1
 10
0
 20
0
 30
0
  0
VERTEX
  8
LAYER_1
 10
115.6801
 20
149.9151
  0
VERTEX
  8
LAYER_1
 10
119.1445
 20
69.4132
  0
SEQEND
  0
POLYLINE
  8
LAYER_1
 40
0.1058
 41
0.1058
 66
1
 10
0
 20
0
 30
0
  0
VERTEX
  8
LAYER_1
 10
63.3319
 20
94.7711
  0
VERTEX
  8
LAYER_1
 10
115.1565
 20
94.7711
  0
SEQEND
  0
POLYLINE
  8
LAYER_1
 40
0.1058
 41
0.1058
 66
1
 10
0
 20
0
 30
0
  0
VERTEX
  8
LAYER_1
 10
100.3901
 20
97.7704
  0
VERTEX
  8
LAYER_1
 10
100.3901
 20
94.7711
  0
SEQEND
  0
POLYLINE
  8
LAYER_1
 40
0.1058
 41
0.1058
 66
1
 10
0
 20
0
 30
0
  0
VERTEX
  8
LAYER_1
 10
63.4607
 20
97.7704
  0
VERTEX
  8
LAYER_1
 10
100.3901
 20
97.7704
  0
SEQEND
  0
POLYLINE
  8
LAYER_1
 40
0.1058
 41
0.1058
 66
1
 10
0
 20
0
 30
0
  0
VERTEX
  8
LAYER_1
 10
110.9452
 20
97.7704
  0
VERTEX
  8
LAYER_1
 10
63.46
 20
97.7704
  0
SEQEND
  0
POLYLINE
  8
LAYER_1
 40
0.1058
 41
0.1058
 66
1
 10
0
 20
0
 30
0
  0
VERTEX
  8
LAYER_1
 10
62.2405
 20
69.4132
  0
VERTEX
  8
LAYER_1
 10
65.7042
 20
149.9151
  0
SEQEND
  0
POLYLINE
  8
LAYER_1
 40
0.1058
 41
0.1058
 66
1
 10
0
 20
0
 30
0
  0
VERTEX
  8
LAYER_1
 10
59.3452
 20
69.4132
  0
VERTEX
  8
LAYER_1
 10
62.2405
 20
69.4132
  0
SEQEND
  0
POLYLINE
  8
LAYER_1
 40
0.1058
 41
0.1058
 66
1
 10
0
 20
0
 30
0
  0
VERTEX
  8
LAYER_1
 10
62.8082
 20
149.9151
  0
VERTEX
  8
LAYER_1
 10
59.3452
 20
69.4132
  0
SEQEND
  0
POLYLINE
  8
LAYER_1
 40
0.3528
 41
0.3528
 66
1
 10
0
 20
0
 30
0
  0
VERTEX
  8
LAYER_1
 10
160.7227
 20
69.2705
  0
VERTEX
  8
LAYER_1
 10
214.2257
 20
69.2705
  0
SEQEND
  0
POLYLINE
  8
LAYER_1
 40
0.3528
 41
0.3528
 66
1
 10
0
 20
0
 30
0
  0
VERTEX
  8
LAYER_1
 10
214.2257
 20
170.0882
  0
VERTEX
  8
LAYER_1
 10
214.2257
 20
69.2698
  0
SEQEND
  0
POLYLINE
  8
LAYER_1
 40
0.3528
 41
0.3528
 66
1
 10
0
 20
0
 30
0
  0
VERTEX
  8
LAYER_1
 10
124.2453
 20
69.2705
  0
VERTEX
  8
LAYER_1
 10
54.2437
 20
69.2705
  0
SEQEND
  0
CIRCLE
  8
LAYER_1
 10
89.2617
 20
193.9833
 40
2.3003
  0
POLYLINE
  8
LAYER_1
 40
0.1058
 41
0.1058
 66
1
 10
0
 20
0
 30
0
  0
VERTEX
  8
LAYER_1
 10
118.2481
 20
175.8649
  0
VERTEX
  8
LAYER_1
 10
115.2288
 20
179.2342
  0
SEQEND
  0
POLYLINE
  8
LAYER_1
 40
0.1058
 41
0.1058
 66
1
 10
0
 20
0
 30
0
  0
VERTEX
  8
LAYER_1
 10
119.1417
 20
176.6648
  0
VERTEX
  8
LAYER_1
 10
116.1555
 20
179.999
  0
SEQEND
  0
POLYLINE
  8
LAYER_1
 40
0.1058
 41
0.1058
 66
1
 10
0
 20
0
 30
0
  0
VERTEX
  8
LAYER_1
 10
119.1417
 20
176.6648
  0
VERTEX
  8
LAYER_1
 10
118.2481
 20
175.8649
  0
SEQEND
  0
POLYLINE
  8
LAYER_1
 40
0.1058
 41
0.1058
 66
1
 10
0
 20
0
 30
0
  0
VERTEX
  8
LAYER_1
 10
118.2481
 20
216.1008
  0
VERTEX
  8
LAYER_1
 10
115.2288
 20
212.7309
  0
SEQEND
  0
POLYLINE
  8
LAYER_1
 40
0.1058
 41
0.1058
 66
1
 10
0
 20
0
 30
0
  0
VERTEX
  8
LAYER_1
 10
119.1417
 20
215.3002
  0
VERTEX
  8
LAYER_1
 10
116.1555
 20
211.9674
  0
SEQEND
  0
POLYLINE
  8
LAYER_1
 40
0.1058
 41
0.1058
 66
1
 10
0
 20
0
 30
0
  0
VERTEX
  8
LAYER_1
 10
119.1417
 20
215.3002
  0
VERTEX
  8
LAYER_1
 10
118.2481
 20
216.1015
  0
SEQEND
  0
POLYLINE
  8
LAYER_1
 40
0.1058
 41
0.1058
 66
1
 10
0
 20
0
 30
0
  0
VERTEX
  8
LAYER_1
 10
60.2375
 20
216.1008
  0
VERTEX
  8
LAYER_1
 10
63.2561
 20
212.7309
  0
SEQEND
  0
POLYLINE
  8
LAYER_1
 40
0.1058
 41
0.1058
 66
1
 10
0
 20
0
 30
0
  0
VERTEX
  8
LAYER_1
 10
59.3431
 20
215.3002
  0
VERTEX
  8
LAYER_1
 10
62.33
 20
211.9674
  0
SEQEND
  0
POLYLINE
  8
LAYER_1
 40
0.1058
 41
0.1058
 66
1
 10
0
 20
0
 30
0
  0
VERTEX
  8
LAYER_1
 10
59.3431
 20
215.3002
  0
VERTEX
  8
LAYER_1
 10
60.2375
 20
216.1015
  0
SEQEND
  0
POLYLINE
  8
LAYER_1
 40
0.1058
 41
0.1058
 66
1
 10
0
 20
0
 30
0
  0
VERTEX
  8
LAYER_1
 10
60.2375
 20
175.8649
  0
VERTEX
  8
LAYER_1
 10
63.2561
 20
179.2342
  0
SEQEND
  0
POLYLINE
  8
LAYER_1
 40
0.1058
 41
0.1058
 66
1
 10
0
 20
0
 30
0
  0
VERTEX
  8
LAYER_1
 10
59.3431
 20
176.6648
  0
VERTEX
  8
LAYER_1
 10
62.33
 20
179.999
  0
SEQEND
  0
POLYLINE
  8
LAYER_1
 40
0.1058
 41
0.1058
 66
1
 10
0
 20
0
 30
0
  0
VERTEX
  8
LAYER_1
 10
59.3431
 20
176.6648
  0
VERTEX
  8
LAYER_1
 10
60.2375
 20
175.8649
  0
SEQEND
  0
POLYLINE
  8
LAYER_1
 40
0.1058
 41
0.1058
 66
1
 10
0
 20
0
 30
0
  0
VERTEX
  8
LAYER_1
 10
54.2003
 20
196.0235
 42
0.07017200849
  0
VERTEX
  8
LAYER_1
 10
54.9123
 20
190.9839
 42
0.03313076808
  0
VERTEX
  8
LAYER_1
 10
55.7758
 20
188.5875
 42
0.03122949319
  0
VERTEX
  8
LAYER_1
 10
56.9542
 20
186.2902
 42
0.02914179151
  0
VERTEX
  8
LAYER_1
 10
58.4299
 20
184.1044
 42
0.02707257175
  0
VERTEX
  8
LAYER_1
 10
60.1852
 20
182.0428
 42
0.02515837112
  0
VERTEX
  8
LAYER_1
 10
62.2026
 20
180.1179
 42
0.0234738731
  0
VERTEX
  8
LAYER_1
 10
64.4644
 20
178.3422
 42
0.02204834387
  0
VERTEX
  8
LAYER_1
 10
66.953
 20
176.7285
 42
0.02088221735
  0
VERTEX
  8
LAYER_1
 10
69.6507
 20
175.2891
 42
0.01995980677
  0
VERTEX
  8
LAYER_1
 10
72.5401
 20
174.0367
 42
0.01925763135
  0
VERTEX
  8
LAYER_1
 10
75.6034
 20
172.9838
 42
0.01874924097
  0
VERTEX
  8
LAYER_1
 10
78.823
 20
172.1431
 42
0.01840765901
  0
VERTEX
  8
LAYER_1
 10
82.1814
 20
171.527
 42
0.01820636801
  0
VERTEX
  8
LAYER_1
 10
85.6608
 20
171.1481
 42
0.01811949288
  0
VERTEX
  8
LAYER_1
 10
89.2438
 20
171.019
 42
0.02031090685
  0
VERTEX
  8
LAYER_1
 10
93.2677
 20
171.182
 42
0.01812678916
  0
VERTEX
  8
LAYER_1
 10
96.733
 20
171.5913
 42
0.01831939795
  0
VERTEX
  8
LAYER_1
 10
100.075
 20
172.2361
 42
0.01864980346
  0
VERTEX
  8
LAYER_1
 10
103.2761
 20
173.1041
 42
0.01914454787
  0
VERTEX
  8
LAYER_1
 10
106.3186
 20
174.1826
 42
0.01983072691
  0
VERTEX
  8
LAYER_1
 10
109.185
 20
175.459
 42
0.0207351324
  0
VERTEX
  8
LAYER_1
 10
111.8576
 20
176.9209
 42
0.02188202651
  0
VERTEX
  8
LAYER_1
 10
114.3187
 20
178.5556
 42
0.02328865119
  0
VERTEX
  8
LAYER_1
 10
116.5509
 20
180.3506
 42
0.02495735557
  0
VERTEX
  8
LAYER_1
 10
118.5365
 20
182.2932
 42
0.02686337412
  0
VERTEX
  8
LAYER_1
 10
120.2578
 20
184.3711
 42
0.02893849032
  0
VERTEX
  8
LAYER_1
 10
121.6973
 20
186.5715
 42
0.03105404099
  0
VERTEX
  8
LAYER_1
 10
122.8373
 20
188.8819
 42
0.03301229839
  0
VERTEX
  8
LAYER_1
 10
123.6603
 20
191.2898
 42
0.03456057642
  0
VERTEX
  8
LAYER_1
 10
124.1485
 20
193.7826
 42
0.03098310846
  0
VERTEX
  8
LAYER_1
 10
124.2873
 20
196.0235
 42
0.07018874547
  0
VERTEX
  8
LAYER_1
 10
123.5753
 20
201.0618
 42
0.0331340576
  0
VERTEX
  8
LAYER_1
 10
122.7118
 20
203.4576
 42
0.03123023386
  0
VERTEX
  8
LAYER_1
 10
121.5334
 20
205.7546
 42
0.0291406639
  0
VERTEX
  8
LAYER_1
 10
120.0577
 20
207.94
 42
0.02707027416
  0
VERTEX
  8
LAYER_1
 10
118.3024
 20
210.0014
 42
0.02515549561
  0
VERTEX
  8
LAYER_1
 10
116.285
 20
211.9261
 42
0.02347086428
  0
VERTEX
  8
LAYER_1
 10
114.0233
 20
213.7015
 42
0.02204550755
  0
VERTEX
  8
LAYER_1
 10
111.5347
 20
215.3152
 42
0.02087974904
  0
VERTEX
  8
LAYER_1
 10
108.8369
 20
216.7545
 42
0.01995782229
  0
VERTEX
  8
LAYER_1
 10
105.9476
 20
218.0069
 42
0.01925619182
  0
VERTEX
  8
LAYER_1
 10
102.8843
 20
219.0597
 42
0.01874837079
  0
VERTEX
  8
LAYER_1
 10
99.6646
 20
219.9005
 42
0.01840735736
  0
VERTEX
  8
LAYER_1
 10
96.3063
 20
220.5166
 42
0.01820661544
  0
VERTEX
  8
LAYER_1
 10
92.8268
 20
220.8955
 42
0.01812025458
  0
VERTEX
  8
LAYER_1
 10
89.2438
 20
221.0246
 42
0.0203119702
  0
VERTEX
  8
LAYER_1
 10
85.2199
 20
220.8616
 42
0.01812712431
  0
VERTEX
  8
LAYER_1
 10
81.7546
 20
220.4523
 42
0.01831911829
  0
VERTEX
  8
LAYER_1
 10
78.4126
 20
219.8074
 42
0.01864889663
  0
VERTEX
  8
LAYER_1
 10
75.2115
 20
218.9395
 42
0.01914302013
  0
VERTEX
  8
LAYER_1
 10
72.169
 20
217.861
 42
0.01982860949
  0
VERTEX
  8
LAYER_1
 10
69.3027
 20
216.5846
 42
0.02073249283
  0
VERTEX
  8
LAYER_1
 10
66.6301
 20
215.1228
 42
0.02187898649
  0
VERTEX
  8
LAYER_1
 10
64.1689
 20
213.4882
 42
0.02328541189
  0
VERTEX
  8
LAYER_1
 10
61.9367
 20
211.6934
 42
0.02495422878
  0
VERTEX
  8
LAYER_1
 10
59.9511
 20
209.7509
 42
0.02686081242
  0
VERTEX
  8
LAYER_1
 10
58.2298
 20
207.6734
 42
0.02893709891
  0
VERTEX
  8
LAYER_1
 10
56.7903
 20
205.4733
 42
0.03105454109
  0
VERTEX
  8
LAYER_1
 10
55.6503
 20
203.1633
 42
0.03301540772
  0
VERTEX
  8
LAYER_1
 10
54.8273
 20
200.756
 42
0.03456679749
  0
VERTEX
  8
LAYER_1
 10
54.3391
 20
198.2638
 42
0.03099122882
  0
VERTEX
  8
LAYER_1
 10
54.2003
 20
196.0235
  0
SEQEND
  0
POLYLINE
  8
LAYER_1
 40
0.1058
 41
0.1058
 66
1
 10
0
 20
0
 30
0
 70
1
  0
VERTEX
  8
LAYER_1
 10
92.4932
 20
194.0006
 42
0.4142109541
  0
VERTEX
  8
LAYER_1
 10
89.2445
 20
197.25
 42
0.3924995653
  0
VERTEX
  8
LAYER_1
 10
85.9868
 20
194.0006
 42
0.3933865885
  0
VERTEX
  8
LAYER_1
 10
89.2445
 20
190.7484
 42
0.3933686274
  0
SEQEND
  0
POLYLINE
  8
LAYER_1
 40
0.1058
 41
0.1058
 66
1
 10
0
 20
0
 30
0
  0
VERTEX
  8
LAYER_1
 10
116.4277
 20
200.6344
 42
0.03607699389
  0
VERTEX
  8
LAYER_1
 10
114.975
 20
202.4516
 42
0.02850657397
  0
VERTEX
  8
LAYER_1
 10
113.4316
 20
203.9453
 42
0.02536748375
  0
VERTEX
  8
LAYER_1
 10
111.671
 20
205.3196
 42
0.02812273712
  0
VERTEX
  8
LAYER_1
 10
109.1941
 20
206.8623
 42
0.02475720576
  0
VERTEX
  8
LAYER_1
 10
106.4455
 20
208.2015
 42
0.02222310704
  0
VERTEX
  8
LAYER_1
 10
103.4629
 20
209.3277
 42
0.02040436129
  0
VERTEX
  8
LAYER_1
 10
100.2839
 20
210.2317
 42
0.02291945922
  0
VERTEX
  8
LAYER_1
 10
96.2626
 20
211.0098
 42
0.02203801869
  0
VERTEX
  8
LAYER_1
 10
92.0777
 20
211.438
 42
0.04042293538
  0
VERTEX
  8
LAYER_1
 10
84.1957
 20
211.2603
 42
0.01937672573
  0
VERTEX
  8
LAYER_1
 10
80.6116
 20
210.7455
 42
0.01422889551
  0
VERTEX
  8
LAYER_1
 10
78.1313
 20
210.2166
 42
0.02323186443
  0
VERTEX
  8
LAYER_1
 10
74.512
 20
209.1584
 42
0.02275014029
  0
VERTEX
  8
LAYER_1
 10
71.4859
 20
207.9594
 42
0.02498287812
  0
VERTEX
  8
LAYER_1
 10
68.7422
 20
206.553
 42
0.02798617767
  0
VERTEX
  8
LAYER_1
 10
66.3106
 20
204.9569
 42
0.03023883454
  0
VERTEX
  8
LAYER_1
 10
64.3169
 20
203.2811
 42
0.03268969024
  0
VERTEX
  8
LAYER_1
 10
62.736
 20
201.5642
 42
0.0182538637
  0
VERTEX
  8
LAYER_1
 10
62.0648
 20
200.6627
  0
SEQEND
  0
POLYLINE
  8
LAYER_1
 40
0.1058
 41
0.1058
 66
1
 10
0
 20
0
 30
0
  0
VERTEX
  8
LAYER_1
 10
61.3296
 20
190.1021
 42
0.03791126243
  0
VERTEX
  8
LAYER_1
 10
62.5802
 20
188.0033
 42
0.03445274253
  0
VERTEX
  8
LAYER_1
 10
64.2289
 20
185.9652
 42
0.02953980167
  0
VERTEX
  8
LAYER_1
 10
66.141
 20
184.1311
 42
0.03008701198
  0
VERTEX
  8
LAYER_1
 10
68.6309
 20
182.2619
 42
0.02456271267
  0
VERTEX
  8
LAYER_1
 10
71.1357
 20
180.7728
 42
0.02625303842
  0
VERTEX
  8
LAYER_1
 10
74.2913
 20
179.311
 42
0.0223373799
  0
VERTEX
  8
LAYER_1
 10
77.3079
 20
178.2523
 42
0.02470348173
  0
VERTEX
  8
LAYER_1
 10
81.038
 20
177.3191
 42
0.02006289414
  0
VERTEX
  8
LAYER_1
 10
84.2595
 20
176.8116
 42
0.02367569087
  0
VERTEX
  8
LAYER_1
 10
88.2306
 20
176.531
 42
0.01937592247
  0
VERTEX
  8
LAYER_1
 10
91.5424
 20
176.5815
 42
0.0233397744
  0
VERTEX
  8
LAYER_1
 10
95.4894
 20
176.9794
 42
0.01993641399
  0
VERTEX
  8
LAYER_1
 10
98.671
 20
177.5819
 42
0.0242132497
  0
VERTEX
  8
LAYER_1
 10
102.3342
 20
178.6248
 42
0.02142849661
  0
VERTEX
  8
LAYER_1
 10
105.1808
 20
179.7262
 42
0.02678116215
  0
VERTEX
  8
LAYER_1
 10
108.2361
 20
181.2635
 42
0.02474148483
  0
VERTEX
  8
LAYER_1
 10
110.6468
 20
182.8081
 42
0.03010997569
  0
VERTEX
  8
LAYER_1
 10
113.0124
 20
184.7301
 42
0.02864544404
  0
VERTEX
  8
LAYER_1
 10
114.7589
 20
186.5323
 42
0.03463054113
  0
VERTEX
  8
LAYER_1
 10
116.3136
 20
188.6221
 42
0.02502366846
  0
VERTEX
  8
LAYER_1
 10
117.1422
 20
190.0738
  0
SEQEND
  0
POLYLINE
  8
LAYER_1
 40
0.1058
 41
0.1058
 66
1
 10
0
 20
0
 30
0
  0
VERTEX
  8
LAYER_1
 10
62.0648
 20
200.6634
 42
0.1485340115
  0
VERTEX
  8
LAYER_1
 10
60.2325
 20
194.8852
 42
0.1186650434
  0
VERTEX
  8
LAYER_1
 10
61.3303
 20
190.1021
  0
SEQEND
  0
POLYLINE
  8
LAYER_1
 40
0.1058
 41
0.1058
 66
1
 10
0
 20
0
 30
0
  0
VERTEX
  8
LAYER_1
 10
117.1422
 20
190.0738
 42
0.1704381599
  0
VERTEX
  8
LAYER_1
 10
118.0063
 20
196.984
 42
0.09629140902
  0
VERTEX
  8
LAYER_1
 10
116.4291
 20
200.6344
  0
SEQEND
  0
POLYLINE
  8
LAYER_1
 40
0.0564
 41
0.0564
 66
1
 10
0
 20
0
 30
0
 70
1
  0
VERTEX
  8
LAYER_1
 10
92.4932
 20
194.0006
 42
0.4142109541
  0
VERTEX
  8
LAYER_1
 10
89.2445
 20
197.25
 42
0.3924995653
  0
VERTEX
  8
LAYER_1
 10
85.9868
 20
194.0006
 42
0.3933865885
  0
VERTEX
  8
LAYER_1
 10
89.2445
 20
190.7484
 42
0.3933686274
  0
SEQEND
  0
POLYLINE
  8
LAYER_1
 40
0.3528
 41
0.3528
 66
1
 10
0
 20
0
 30
0
  0
VERTEX
  8
LAYER_1
 10
124.2439
 20
223.9839
  0
VERTEX
  8
LAYER_1
 10
54.2423
 20
223.9839
  0
SEQEND
  0
POLYLINE
  8
LAYER_1
 40
0.1411
 41
0.1411
 66
1
 10
0
 20
0
 30
0
  0
VERTEX
  8
LAYER_1
 10
89.744
 20
97.4183
  0
VERTEX
  8
LAYER_1
 10
89.744
 20
97.7704
  0
VERTEX
  8
LAYER_1
 10
89.392
 20
97.7704
  0
SEQEND
  0
POLYLINE
  8
LAYER_1
 40
0.1411
 41
0.1411
 66
1
 10
0
 20
0
 30
0
  0
VERTEX
  8
LAYER_1
 10
89.0971
 20
97.7704
  0
VERTEX
  8
LAYER_1
 10
88.7443
 20
97.7704
  0
VERTEX
  8
LAYER_1
 10
88.7443
 20
97.4183
  0
SEQEND
  0
POLYLINE
  8
LAYER_1
  6
AIGENLINE004
 40
0.1411
 41
0.1411
 66
1
 10
0
 20
0
 30
0
 70
128
  0
VERTEX
  8
LAYER_1
 10
88.7443
 20
96.6522
  0
VERTEX
  8
LAYER_1
 10
88.7443
 20
95.5056
  0
SEQEND
  0
POLYLINE
  8
LAYER_1
 40
0.1411
 41
0.1411
 66
1
 10
0
 20
0
 30
0
  0
VERTEX
  8
LAYER_1
 10
88.7443
 20
95.1232
  0
VERTEX
  8
LAYER_1
 10
88.7443
 20
94.7711
  0
VERTEX
  8
LAYER_1
 10
89.0971
 20
94.7711
  0
SEQEND
  0
POLYLINE
  8
LAYER_1
 40
0.1411
 41
0.1411
 66
1
 10
0
 20
0
 30
0
  0
VERTEX
  8
LAYER_1
 10
89.392
 20
94.7711
  0
VERTEX
  8
LAYER_1
 10
89.744
 20
94.7711
  0
VERTEX
  8
LAYER_1
 10
89.744
 20
95.1232
  0
SEQEND
  0
POLYLINE
  8
LAYER_1
  6
AIGENLINE004
 40
0.1411
 41
0.1411
 66
1
 10
0
 20
0
 30
0
 70
128
  0
VERTEX
  8
LAYER_1
 10
89.744
 20
95.888
  0
VERTEX
  8
LAYER_1
 10
89.744
 20
97.0352
  0
SEQEND
  0
POLYLINE
  8
LAYER_1
 40
0.1411
 41
0.1411
 66
1
 10
0
 20
0
 30
0
  0
VERTEX
  8
LAYER_1
 10
78.7439
 20
97.7704
  0
VERTEX
  8
LAYER_1
 10
78.3911
 20
97.7704
  0
SEQEND
  0
POLYLINE
  8
LAYER_1
  6
AIGENLINE005
 40
0.1411
 41
0.1411
 66
1
 10
0
 20
0
 30
0
 70
128
  0
VERTEX
  8
LAYER_1
 10
77.6766
 20
97.7704
  0
VERTEX
  8
LAYER_1
 10
59.4534
 20
97.7704
  0
SEQEND
  0
POLYLINE
  8
LAYER_1
 40
0.1411
 41
0.1411
 66
1
 10
0
 20
0
 30
0
  0
VERTEX
  8
LAYER_1
 10
59.0958
 20
97.7704
  0
VERTEX
  8
LAYER_1
 10
58.7437
 20
97.7704
  0
VERTEX
  8
LAYER_1
 10
58.7437
 20
97.9709
 42
0.126912277
  0
VERTEX
  8
LAYER_1
 10
58.7058
 20
98.1177
  0
SEQEND
  0
POLYLINE
  8
LAYER_1
  6
AIGENLINE006
 40
0.1411
 41
0.1411
 66
1
 10
0
 20
0
 30
0
 70
128
  0
VERTEX
  8
LAYER_1
 10
58.0636
 20
98.2707
  0
VERTEX
  8
LAYER_1
 10
57.0432
 20
98.2707
 42
-0.4142388264
  0
VERTEX
  8
LAYER_1
 10
56.7428
 20
98.5711
  0
VERTEX
  8
LAYER_1
 10
56.7428
 20
98.9707
 42
-0.4142146205
  0
VERTEX
  8
LAYER_1
 10
57.0432
 20
99.2711
  0
VERTEX
  8
LAYER_1
 10
78.0411
 20
99.2711
  0
SEQEND
  0
POLYLINE
  8
LAYER_1
 40
0.1411
 41
0.1411
 66
1
 10
0
 20
0
 30
0
  0
VERTEX
  8
LAYER_1
 10
78.3911
 20
99.2711
  0
VERTEX
  8
LAYER_1
 10
78.7439
 20
99.2711
  0
SEQEND
  0
POLYLINE
  8
LAYER_1
  6
AIGENLINE007
 40
0.1411
 41
0.1411
 66
1
 10
0
 20
0
 30
0
 70
128
  0
VERTEX
  8
LAYER_1
 10
88.8745
 20
97.7704
  0
VERTEX
  8
LAYER_1
 10
89.2438
 20
97.7704
  0
SEQEND
  0
POLYLINE
  8
LAYER_1
 40
0.1411
 41
0.1411
 66
1
 10
0
 20
0
 30
0
  0
VERTEX
  8
LAYER_1
 10
58.7437
 20
97.7704
  0
VERTEX
  8
LAYER_1
 10
59.0958
 20
97.7704
  0
SEQEND
  0
POLYLINE
  8
LAYER_1
  6
AIGENLINE008
 40
0.1411
 41
0.1411
 66
1
 10
0
 20
0
 30
0
 70
128
  0
VERTEX
  8
LAYER_1
 10
59.7889
 20
97.7704
  0
VERTEX
  8
LAYER_1
 10
88.5452
 20
97.7704
  0
SEQEND
  0
POLYLINE
  8
LAYER_1
 40
0.1411
 41
0.1411
 66
1
 10
0
 20
0
 30
0
  0
VERTEX
  8
LAYER_1
 10
88.8917
 20
97.7704
  0
VERTEX
  8
LAYER_1
 10
89.2445
 20
97.7704
  0
SEQEND
  0
POLYLINE
  8
LAYER_1
 40
0.1411
 41
0.1411
 66
1
 10
0
 20
0
 30
0
  0
VERTEX
  8
LAYER_1
 10
89.2445
 20
99.2711
  0
VERTEX
  8
LAYER_1
 10
88.8917
 20
99.2711
  0
SEQEND
  0
POLYLINE
  8
LAYER_1
  6
AIGENLINE009
 40
0.1411
 41
0.1411
 66
1
 10
0
 20
0
 30
0
 70
128
  0
VERTEX
  8
LAYER_1
 10
88.1917
 20
99.2711
  0
VERTEX
  8
LAYER_1
 10
57.746
 20
99.2711
  0
SEQEND
  0
POLYLINE
  8
LAYER_1
 40
0.1411
 41
0.1411
 66
1
 10
0
 20
0
 30
0
  0
VERTEX
  8
LAYER_1
 10
57.3967
 20
99.2711
  0
VERTEX
  8
LAYER_1
 10
57.0439
 20
99.2711
  0
SEQEND
  0
POLYLINE
  8
LAYER_1
  6
AIGENLINE007
 40
0.1411
 41
0.1411
 66
1
 10
0
 20
0
 30
0
 70
128
  0
VERTEX
  8
LAYER_1
 10
89.2445
 20
99.2711
  0
VERTEX
  8
LAYER_1
 10
88.8745
 20
99.2711
  0
SEQEND
  0
POLYLINE
  8
LAYER_1
 40
0.1411
 41
0.1411
 66
1
 10
0
 20
0
 30
0
  0
VERTEX
  8
LAYER_1
 10
85.7443
 20
98.2169
  0
VERTEX
  8
LAYER_1
 10
85.7443
 20
98.5711
  0
VERTEX
  8
LAYER_1
 10
86.0971
 20
98.5711
  0
SEQEND
  0
POLYLINE
  8
LAYER_1
 40
0.1411
 41
0.1411
 66
1
 10
0
 20
0
 30
0
  0
VERTEX
  8
LAYER_1
 10
86.3913
 20
98.5711
  0
VERTEX
  8
LAYER_1
 10
86.7434
 20
98.5711
  0
VERTEX
  8
LAYER_1
 10
86.7434
 20
98.2169
  0
SEQEND
  0
POLYLINE
  8
LAYER_1
 40
0.1411
 41
0.1411
 66
1
 10
0
 20
0
 30
0
  0
VERTEX
  8
LAYER_1
 10
86.7434
 20
98.1225
  0
VERTEX
  8
LAYER_1
 10
86.7434
 20
97.7704
  0
VERTEX
  8
LAYER_1
 10
86.3913
 20
97.7704
  0
SEQEND
  0
POLYLINE
  8
LAYER_1
 40
0.1411
 41
0.1411
 66
1
 10
0
 20
0
 30
0
  0
VERTEX
  8
LAYER_1
 10
86.0971
 20
97.7704
  0
VERTEX
  8
LAYER_1
 10
85.7443
 20
97.7704
  0
VERTEX
  8
LAYER_1
 10
85.7443
 20
98.1225
  0
SEQEND
  0
POLYLINE
  8
LAYER_1
  6
AIGENLINE010
 40
0.1411
 41
0.1411
 66
1
 10
0
 20
0
 30
0
 70
128
  0
VERTEX
  8
LAYER_1
 10
85.8986
 20
97.3357
  0
VERTEX
  8
LAYER_1
 10
85.8986
 20
97.5713
  0
SEQEND
  0
POLYLINE
  8
LAYER_1
  6
AIGENLINE011
 40
0.1411
 41
0.1411
 66
1
 10
0
 20
0
 30
0
 70
128
  0
VERTEX
  8
LAYER_1
 10
85.8986
 20
97.3357
 42
0.4095978027
  0
VERTEX
  8
LAYER_1
 10
86.0454
 20
97.3095
  0
VERTEX
  8
LAYER_1
 10
86.0716
 20
97.3357
  0
SEQEND
  0
POLYLINE
  8
LAYER_1
  6
AIGENLINE012
 40
0.1411
 41
0.1411
 66
1
 10
0
 20
0
 30
0
 70
128
  0
VERTEX
  8
LAYER_1
 10
85.9854
 20
97.2909
  0
VERTEX
  8
LAYER_1
 10
86.5036
 20
97.2909
  0
SEQEND
  0
POLYLINE
  8
LAYER_1
  6
AIGENLINE011
 40
0.1411
 41
0.1411
 66
1
 10
0
 20
0
 30
0
 70
128
  0
VERTEX
  8
LAYER_1
 10
86.4168
 20
97.3357
 42
0.409434897
  0
VERTEX
  8
LAYER_1
 10
86.5642
 20
97.3095
  0
VERTEX
  8
LAYER_1
 10
86.5897
 20
97.3357
  0
SEQEND
  0
INSERT
  8
LAYER_1
  2
AIGNBL01010028
 10
0
 20
0
 30
0
  0
POLYLINE
  8
LAYER_1
  6
AIGENLINE013
 40
0.1411
 41
0.1411
 66
1
 10
0
 20
0
 30
0
 70
128
  0
VERTEX
  8
LAYER_1
 10
86.0716
 20
97.3357
 42
0.2576466438
  0
VERTEX
  8
LAYER_1
 10
86.4168
 20
97.3357
  0
SEQEND
  0
POLYLINE
  8
LAYER_1
  6
AIGENLINE010
 40
0.1411
 41
0.1411
 66
1
 10
0
 20
0
 30
0
 70
128
  0
VERTEX
  8
LAYER_1
 10
86.5897
 20
97.5713
  0
VERTEX
  8
LAYER_1
 10
86.5897
 20
97.3357
  0
SEQEND
  0
POLYLINE
  8
LAYER_1
  6
AIGENLINE014
 40
0.1411
 41
0.1411
 66
1
 10
0
 20
0
 30
0
 70
128
  0
VERTEX
  8
LAYER_1
 10
86.5897
 20
97.5658
  0
VERTEX
  8
LAYER_1
 10
86.5856
 20
97.5713
  0
SEQEND
  0
POLYLINE
  8
LAYER_1
  6
AIGENLINE015
 40
0.1411
 41
0.1411
 66
1
 10
0
 20
0
 30
0
 70
128
  0
VERTEX
  8
LAYER_1
 10
86.1033
 20
97.5713
  0
VERTEX
  8
LAYER_1
 10
86.3851
 20
97.5713
  0
SEQEND
  0
POLYLINE
  8
LAYER_1
  6
AIGENLINE016
 40
0.1411
 41
0.1411
 66
1
 10
0
 20
0
 30
0
 70
128
  0
VERTEX
  8
LAYER_1
 10
86.0716
 20
97.5658
  0
VERTEX
  8
LAYER_1
 10
86.0674
 20
97.5713
  0
SEQEND
  0
INSERT
  8
LAYER_1
  2
AIGNBL01010029
 10
0
 20
0
 30
0
  0
POLYLINE
  8
LAYER_1
  6
AIGENLINE016
 40
0.1411
 41
0.1411
 66
1
 10
0
 20
0
 30
0
 70
128
  0
VERTEX
  8
LAYER_1
 10
86.4209
 20
97.5713
  0
VERTEX
  8
LAYER_1
 10
86.4168
 20
97.5658
  0
SEQEND
  0
POLYLINE
  8
LAYER_1
  6
AIGENLINE017
 40
0.1411
 41
0.1411
 66
1
 10
0
 20
0
 30
0
 70
128
  0
VERTEX
  8
LAYER_1
 10
85.8986
 20
97.5713
  0
VERTEX
  8
LAYER_1
 10
86.5897
 20
97.5713
  0
SEQEND
  0
POLYLINE
  8
LAYER_1
  6
AIGENLINE014
 40
0.1411
 41
0.1411
 66
1
 10
0
 20
0
 30
0
 70
128
  0
VERTEX
  8
LAYER_1
 10
85.9028
 20
97.5713
  0
VERTEX
  8
LAYER_1
 10
85.8986
 20
97.5658
  0
SEQEND
  0
POLYLINE
  8
LAYER_1
 40
0.1411
 41
0.1411
 66
1
 10
0
 20
0
 30
0
  0
VERTEX
  8
LAYER_1
 10
86.044
 20
97.5713
  0
VERTEX
  8
LAYER_1
 10
86.044
 20
97.9234
  0
SEQEND
  0
POLYLINE
  8
LAYER_1
  6
AIGENLINE018
 40
0.1411
 41
0.1411
 66
1
 10
0
 20
0
 30
0
 70
128
  0
VERTEX
  8
LAYER_1
 10
86.044
 20
98.4174
  0
VERTEX
  8
LAYER_1
 10
86.044
 20
98.4395
  0
VERTEX
  8
LAYER_1
 10
86.1033
 20
98.5001
  0
VERTEX
  8
LAYER_1
 10
86.3844
 20
98.5001
  0
VERTEX
  8
LAYER_1
 10
86.4443
 20
98.4395
  0
VERTEX
  8
LAYER_1
 10
86.4443
 20
98.1708
  0
SEQEND
  0
POLYLINE
  8
LAYER_1
 40
0.1411
 41
0.1411
 66
1
 10
0
 20
0
 30
0
  0
VERTEX
  8
LAYER_1
 10
86.4443
 20
97.9234
  0
VERTEX
  8
LAYER_1
 10
86.4443
 20
97.5713
  0
SEQEND
  0
POLYLINE
  8
LAYER_1
 40
0.1411
 41
0.1411
 66
1
 10
0
 20
0
 30
0
  0
VERTEX
  8
LAYER_1
 10
86.084
 20
97.5713
  0
VERTEX
  8
LAYER_1
 10
86.084
 20
97.9234
  0
SEQEND
  0
POLYLINE
  8
LAYER_1
 40
0.1411
 41
0.1411
 66
1
 10
0
 20
0
 30
0
  0
VERTEX
  8
LAYER_1
 10
86.084
 20
98.0874
  0
VERTEX
  8
LAYER_1
 10
86.084
 20
98.4395
  0
SEQEND
  0
POLYLINE
  8
LAYER_1
 40
0.1411
 41
0.1411
 66
1
 10
0
 20
0
 30
0
  0
VERTEX
  8
LAYER_1
 10
86.4044
 20
97.5713
  0
VERTEX
  8
LAYER_1
 10
86.4044
 20
97.9234
  0
SEQEND
  0
POLYLINE
  8
LAYER_1
 40
0.1411
 41
0.1411
 66
1
 10
0
 20
0
 30
0
  0
VERTEX
  8
LAYER_1
 10
86.4044
 20
98.0874
  0
VERTEX
  8
LAYER_1
 10
86.4044
 20
98.4395
  0
SEQEND
  0
POLYLINE
  8
LAYER_1
  6
AIGENLINE019
 40
0.1411
 41
0.1411
 66
1
 10
0
 20
0
 30
0
 70
128
  0
VERTEX
  8
LAYER_1
 10
86.044
 20
98.4395
  0
VERTEX
  8
LAYER_1
 10
86.4443
 20
98.4395
  0
SEQEND
  0
POLYLINE
  8
LAYER_1
 40
0.1411
 41
0.1411
 66
1
 10
0
 20
0
 30
0
  0
VERTEX
  8
LAYER_1
 10
92.744
 20
98.2169
  0
VERTEX
  8
LAYER_1
 10
92.744
 20
98.5711
  0
VERTEX
  8
LAYER_1
 10
92.3913
 20
98.5711
  0
SEQEND
  0
POLYLINE
  8
LAYER_1
 40
0.1411
 41
0.1411
 66
1
 10
0
 20
0
 30
0
  0
VERTEX
  8
LAYER_1
 10
92.097
 20
98.5711
  0
VERTEX
  8
LAYER_1
 10
91.7443
 20
98.5711
  0
VERTEX
  8
LAYER_1
 10
91.7443
 20
98.2169
  0
SEQEND
  0
POLYLINE
  8
LAYER_1
 40
0.1411
 41
0.1411
 66
1
 10
0
 20
0
 30
0
  0
VERTEX
  8
LAYER_1
 10
91.7443
 20
98.1225
  0
VERTEX
  8
LAYER_1
 10
91.7443
 20
97.7704
  0
VERTEX
  8
LAYER_1
 10
92.097
 20
97.7704
  0
SEQEND
  0
POLYLINE
  8
LAYER_1
 40
0.1411
 41
0.1411
 66
1
 10
0
 20
0
 30
0
  0
VERTEX
  8
LAYER_1
 10
92.3913
 20
97.7704
  0
VERTEX
  8
LAYER_1
 10
92.744
 20
97.7704
  0
VERTEX
  8
LAYER_1
 10
92.744
 20
98.1225
  0
SEQEND
  0
POLYLINE
  8
LAYER_1
  6
AIGENLINE010
 40
0.1411
 41
0.1411
 66
1
 10
0
 20
0
 30
0
 70
128
  0
VERTEX
  8
LAYER_1
 10
92.5897
 20
97.3357
  0
VERTEX
  8
LAYER_1
 10
92.5897
 20
97.5713
  0
SEQEND
  0
POLYLINE
  8
LAYER_1
  6
AIGENLINE011
 40
0.1411
 41
0.1411
 66
1
 10
0
 20
0
 30
0
 70
128
  0
VERTEX
  8
LAYER_1
 10
92.4168
 20
97.3357
 42
0.3905227595
  0
VERTEX
  8
LAYER_1
 10
92.5635
 20
97.3095
  0
VERTEX
  8
LAYER_1
 10
92.5897
 20
97.3357
  0
SEQEND
  0
POLYLINE
  8
LAYER_1
  6
AIGENLINE012
 40
0.1411
 41
0.1411
 66
1
 10
0
 20
0
 30
0
 70
128
  0
VERTEX
  8
LAYER_1
 10
92.5029
 20
97.2909
  0
VERTEX
  8
LAYER_1
 10
91.9854
 20
97.2909
  0
SEQEND
  0
POLYLINE
  8
LAYER_1
  6
AIGENLINE011
 40
0.1411
 41
0.1411
 66
1
 10
0
 20
0
 30
0
 70
128
  0
VERTEX
  8
LAYER_1
 10
91.8986
 20
97.3357
 42
0.4096362686
  0
VERTEX
  8
LAYER_1
 10
92.0461
 20
97.3095
  0
VERTEX
  8
LAYER_1
 10
92.0716
 20
97.3357
  0
SEQEND
  0
INSERT
  8
LAYER_1
  2
AIGNBL0101002A
 10
0
 20
0
 30
0
  0
POLYLINE
  8
LAYER_1
  6
AIGENLINE013
 40
0.1411
 41
0.1411
 66
1
 10
0
 20
0
 30
0
 70
128
  0
VERTEX
  8
LAYER_1
 10
92.0716
 20
97.3357
 42
0.2626314435
  0
VERTEX
  8
LAYER_1
 10
92.4168
 20
97.3357
  0
SEQEND
  0
POLYLINE
  8
LAYER_1
  6
AIGENLINE010
 40
0.1411
 41
0.1411
 66
1
 10
0
 20
0
 30
0
 70
128
  0
VERTEX
  8
LAYER_1
 10
91.8986
 20
97.5713
  0
VERTEX
  8
LAYER_1
 10
91.8986
 20
97.3357
  0
SEQEND
  0
POLYLINE
  8
LAYER_1
  6
AIGENLINE014
 40
0.1411
 41
0.1411
 66
1
 10
0
 20
0
 30
0
 70
128
  0
VERTEX
  8
LAYER_1
 10
91.9027
 20
97.5713
  0
VERTEX
  8
LAYER_1
 10
91.8986
 20
97.5658
  0
SEQEND
  0
POLYLINE
  8
LAYER_1
  6
AIGENLINE015
 40
0.1411
 41
0.1411
 66
1
 10
0
 20
0
 30
0
 70
128
  0
VERTEX
  8
LAYER_1
 10
92.3851
 20
97.5713
  0
VERTEX
  8
LAYER_1
 10
92.1039
 20
97.5713
  0
SEQEND
  0
POLYLINE
  8
LAYER_1
  6
AIGENLINE016
 40
0.1411
 41
0.1411
 66
1
 10
0
 20
0
 30
0
 70
128
  0
VERTEX
  8
LAYER_1
 10
92.4209
 20
97.5713
  0
VERTEX
  8
LAYER_1
 10
92.4168
 20
97.5658
  0
SEQEND
  0
INSERT
  8
LAYER_1
  2
AIGNBL0101002B
 10
0
 20
0
 30
0
  0
POLYLINE
  8
LAYER_1
  6
AIGENLINE016
 40
0.1411
 41
0.1411
 66
1
 10
0
 20
0
 30
0
 70
128
  0
VERTEX
  8
LAYER_1
 10
92.0716
 20
97.5658
  0
VERTEX
  8
LAYER_1
 10
92.0674
 20
97.5713
  0
SEQEND
  0
POLYLINE
  8
LAYER_1
  6
AIGENLINE017
 40
0.1411
 41
0.1411
 66
1
 10
0
 20
0
 30
0
 70
128
  0
VERTEX
  8
LAYER_1
 10
92.5897
 20
97.5713
  0
VERTEX
  8
LAYER_1
 10
91.8986
 20
97.5713
  0
SEQEND
  0
POLYLINE
  8
LAYER_1
  6
AIGENLINE014
 40
0.1411
 41
0.1411
 66
1
 10
0
 20
0
 30
0
 70
128
  0
VERTEX
  8
LAYER_1
 10
92.5897
 20
97.5658
  0
VERTEX
  8
LAYER_1
 10
92.5856
 20
97.5713
  0
SEQEND
  0
POLYLINE
  8
LAYER_1
 40
0.1411
 41
0.1411
 66
1
 10
0
 20
0
 30
0
  0
VERTEX
  8
LAYER_1
 10
92.4436
 20
97.5713
  0
VERTEX
  8
LAYER_1
 10
92.4436
 20
97.9234
  0
SEQEND
  0
POLYLINE
  8
LAYER_1
  6
AIGENLINE018
 40
0.1411
 41
0.1411
 66
1
 10
0
 20
0
 30
0
 70
128
  0
VERTEX
  8
LAYER_1
 10
92.4436
 20
98.4174
  0
VERTEX
  8
LAYER_1
 10
92.4436
 20
98.4395
  0
VERTEX
  8
LAYER_1
 10
92.3844
 20
98.5001
  0
VERTEX
  8
LAYER_1
 10
92.1039
 20
98.5001
  0
VERTEX
  8
LAYER_1
 10
92.0447
 20
98.4395
  0
VERTEX
  8
LAYER_1
 10
92.0447
 20
98.1708
  0
SEQEND
  0
POLYLINE
  8
LAYER_1
 40
0.1411
 41
0.1411
 66
1
 10
0
 20
0
 30
0
  0
VERTEX
  8
LAYER_1
 10
92.0447
 20
97.9234
  0
VERTEX
  8
LAYER_1
 10
92.0447
 20
97.5713
  0
SEQEND
  0
POLYLINE
  8
LAYER_1
 40
0.1411
 41
0.1411
 66
1
 10
0
 20
0
 30
0
  0
VERTEX
  8
LAYER_1
 10
92.4044
 20
97.5713
  0
VERTEX
  8
LAYER_1
 10
92.4044
 20
97.9234
  0
SEQEND
  0
POLYLINE
  8
LAYER_1
 40
0.1411
 41
0.1411
 66
1
 10
0
 20
0
 30
0
  0
VERTEX
  8
LAYER_1
 10
92.4044
 20
98.0874
  0
VERTEX
  8
LAYER_1
 10
92.4044
 20
98.4395
  0
SEQEND
  0
POLYLINE
  8
LAYER_1
 40
0.1411
 41
0.1411
 66
1
 10
0
 20
0
 30
0
  0
VERTEX
  8
LAYER_1
 10
92.084
 20
97.5713
  0
VERTEX
  8
LAYER_1
 10
92.084
 20
97.9234
  0
SEQEND
  0
POLYLINE
  8
LAYER_1
 40
0.1411
 41
0.1411
 66
1
 10
0
 20
0
 30
0
  0
VERTEX
  8
LAYER_1
 10
92.084
 20
98.0874
  0
VERTEX
  8
LAYER_1
 10
92.084
 20
98.4395
  0
SEQEND
  0
POLYLINE
  8
LAYER_1
  6
AIGENLINE019
 40
0.1411
 41
0.1411
 66
1
 10
0
 20
0
 30
0
 70
128
  0
VERTEX
  8
LAYER_1
 10
92.4436
 20
98.4395
  0
VERTEX
  8
LAYER_1
 10
92.0447
 20
98.4395
  0
SEQEND
  0
POLYLINE
  8
LAYER_1
 40
0.1411
 41
0.1411
 66
1
 10
0
 20
0
 30
0
  0
VERTEX
  8
LAYER_1
 10
84.5971
 20
97.5713
  0
VERTEX
  8
LAYER_1
 10
84.2443
 20
97.5713
  0
VERTEX
  8
LAYER_1
 10
84.2443
 20
97.7704
  0
VERTEX
  8
LAYER_1
 10
84.5971
 20
97.7704
  0
SEQEND
  0
POLYLINE
  8
LAYER_1
 40
0.1411
 41
0.1411
 66
1
 10
0
 20
0
 30
0
  0
VERTEX
  8
LAYER_1
 10
85.6409
 20
97.7704
  0
VERTEX
  8
LAYER_1
 10
85.9944
 20
97.7704
  0
VERTEX
  8
LAYER_1
 10
85.9944
 20
97.5713
  0
VERTEX
  8
LAYER_1
 10
85.6409
 20
97.5713
  0
SEQEND
  0
POLYLINE
  8
LAYER_1
 40
0.1411
 41
0.1411
 66
1
 10
0
 20
0
 30
0
  0
VERTEX
  8
LAYER_1
 10
93.8913
 20
97.5713
  0
VERTEX
  8
LAYER_1
 10
94.244
 20
97.5713
  0
VERTEX
  8
LAYER_1
 10
94.244
 20
97.7704
  0
VERTEX
  8
LAYER_1
 10
93.8913
 20
97.7704
  0
SEQEND
  0
POLYLINE
  8
LAYER_1
 40
0.1411
 41
0.1411
 66
1
 10
0
 20
0
 30
0
  0
VERTEX
  8
LAYER_1
 10
92.8467
 20
97.7704
  0
VERTEX
  8
LAYER_1
 10
92.4939
 20
97.7704
  0
VERTEX
  8
LAYER_1
 10
92.4939
 20
97.5713
  0
VERTEX
  8
LAYER_1
 10
92.8467
 20
97.5713
  0
SEQEND
  0
POLYLINE
  8
LAYER_1
 40
0.1411
 41
0.1411
 66
1
 10
0
 20
0
 30
0
  0
VERTEX
  8
LAYER_1
 10
86.8467
 20
97.5713
  0
VERTEX
  8
LAYER_1
 10
86.4939
 20
97.5713
  0
VERTEX
  8
LAYER_1
 10
86.4939
 20
97.7704
  0
VERTEX
  8
LAYER_1
 10
86.8467
 20
97.7704
  0
SEQEND
  0
POLYLINE
  8
LAYER_1
  6
AIGENLINE020
 40
0.1411
 41
0.1411
 66
1
 10
0
 20
0
 30
0
 70
128
  0
VERTEX
  8
LAYER_1
 10
87.5316
 20
97.7704
  0
VERTEX
  8
LAYER_1
 10
91.2992
 20
97.7704
  0
SEQEND
  0
POLYLINE
  8
LAYER_1
 40
0.1411
 41
0.1411
 66
1
 10
0
 20
0
 30
0
  0
VERTEX
  8
LAYER_1
 10
91.6416
 20
97.7704
  0
VERTEX
  8
LAYER_1
 10
91.9937
 20
97.7704
  0
VERTEX
  8
LAYER_1
 10
91.9937
 20
97.5713
  0
VERTEX
  8
LAYER_1
 10
91.6416
 20
97.5713
  0
SEQEND
  0
POLYLINE
  8
LAYER_1
  6
AIGENLINE020
 40
0.1411
 41
0.1411
 66
1
 10
0
 20
0
 30
0
 70
128
  0
VERTEX
  8
LAYER_1
 10
90.9567
 20
97.5713
  0
VERTEX
  8
LAYER_1
 10
87.1899
 20
97.5713
  0
SEQEND
  0
POLYLINE
  8
LAYER_1
 40
0.1411
 41
0.1411
 66
1
 10
0
 20
0
 30
0
  0
VERTEX
  8
LAYER_1
 10
99.7445
 20
97.7704
  0
VERTEX
  8
LAYER_1
 10
100.0972
 20
97.7704
  0
SEQEND
  0
POLYLINE
  8
LAYER_1
  6
AIGENLINE005
 40
0.1411
 41
0.1411
 66
1
 10
0
 20
0
 30
0
 70
128
  0
VERTEX
  8
LAYER_1
 10
100.8111
 20
97.7704
  0
VERTEX
  8
LAYER_1
 10
119.0349
 20
97.7704
  0
SEQEND
  0
POLYLINE
  8
LAYER_1
 40
0.1411
 41
0.1411
 66
1
 10
0
 20
0
 30
0
  0
VERTEX
  8
LAYER_1
 10
119.3925
 20
97.7704
  0
VERTEX
  8
LAYER_1
 10
119.746
 20
97.7704
  0
VERTEX
  8
LAYER_1
 10
119.746
 20
97.9709
 42
-0.1233143152
  0
VERTEX
  8
LAYER_1
 10
119.7832
 20
98.1177
  0
SEQEND
  0
POLYLINE
  8
LAYER_1
  6
AIGENLINE021
 40
0.1411
 41
0.1411
 66
1
 10
0
 20
0
 30
0
 70
128
  0
VERTEX
  8
LAYER_1
 10
120.4398
 20
98.2707
  0
VERTEX
  8
LAYER_1
 10
121.4451
 20
98.2707
 42
0.3923442102
  0
VERTEX
  8
LAYER_1
 10
121.7462
 20
98.5711
  0
VERTEX
  8
LAYER_1
 10
121.7462
 20
98.9707
 42
0.3923789148
  0
VERTEX
  8
LAYER_1
 10
121.4451
 20
99.2711
  0
VERTEX
  8
LAYER_1
 10
89.9542
 20
99.2711
  0
SEQEND
  0
POLYLINE
  8
LAYER_1
 40
0.1411
 41
0.1411
 66
1
 10
0
 20
0
 30
0
  0
VERTEX
  8
LAYER_1
 10
89.5966
 20
99.2711
  0
VERTEX
  8
LAYER_1
 10
89.2445
 20
99.2711
  0
SEQEND
  0
POLYLINE
  8
LAYER_1
 40
0.1411
 41
0.1411
 66
1
 10
0
 20
0
 30
0
  0
VERTEX
  8
LAYER_1
 10
119.7446
 20
97.7704
  0
VERTEX
  8
LAYER_1
 10
119.3925
 20
97.7704
  0
SEQEND
  0
POLYLINE
  8
LAYER_1
  6
AIGENLINE008
 40
0.1411
 41
0.1411
 66
1
 10
0
 20
0
 30
0
 70
128
  0
VERTEX
  8
LAYER_1
 10
118.7001
 20
97.7704
  0
VERTEX
  8
LAYER_1
 10
89.9432
 20
97.7704
  0
SEQEND
  0
POLYLINE
  8
LAYER_1
 40
0.1411
 41
0.1411
 66
1
 10
0
 20
0
 30
0
  0
VERTEX
  8
LAYER_1
 10
89.5966
 20
97.7704
  0
VERTEX
  8
LAYER_1
 10
89.2445
 20
97.7704
  0
SEQEND
  0
POLYLINE
  8
LAYER_1
  6
AIGENLINE022
 40
0.1411
 41
0.1411
 66
1
 10
0
 20
0
 30
0
 70
128
  0
VERTEX
  8
LAYER_1
 10
85.7443
 20
137.7218
 42
0.1807764502
  0
VERTEX
  8
LAYER_1
 10
85.621
 20
137.7769
  0
SEQEND
  0
POLYLINE
  8
LAYER_1
 40
0.1411
 41
0.1411
 66
1
 10
0
 20
0
 30
0
  0
VERTEX
  8
LAYER_1
 10
85.7443
 20
137.7218
  0
VERTEX
  8
LAYER_1
 10
85.9992
 20
137.4779
  0
SEQEND
  0
POLYLINE
  8
LAYER_1
 40
0.1411
 41
0.1411
 66
1
 10
0
 20
0
 30
0
  0
VERTEX
  8
LAYER_1
 10
86.6262
 20
136.875
  0
VERTEX
  8
LAYER_1
 10
86.8812
 20
136.6318
  0
SEQEND
  0
POLYLINE
  8
LAYER_1
  6
AIGENLINE023
 40
0.1411
 41
0.1411
 66
1
 10
0
 20
0
 30
0
 70
128
  0
VERTEX
  8
LAYER_1
 10
86.9432
 20
136.4864
 42
0.1975081121
  0
VERTEX
  8
LAYER_1
 10
86.8812
 20
136.6318
  0
SEQEND
  0
POLYLINE
  8
LAYER_1
 40
0.1411
 41
0.1411
 66
1
 10
0
 20
0
 30
0
  0
VERTEX
  8
LAYER_1
 10
86.9432
 20
136.4864
  0
VERTEX
  8
LAYER_1
 10
86.9432
 20
136.1343
  0
SEQEND
  0
POLYLINE
  8
LAYER_1
 40
0.1411
 41
0.1411
 66
1
 10
0
 20
0
 30
0
  0
VERTEX
  8
LAYER_1
 10
86.9432
 20
135.6245
  0
VERTEX
  8
LAYER_1
 10
86.9432
 20
135.2731
  0
SEQEND
  0
POLYLINE
  8
LAYER_1
  6
AIGENLINE003
 40
0.1411
 41
0.1411
 66
1
 10
0
 20
0
 30
0
 70
128
  0
VERTEX
  8
LAYER_1
 10
86.9432
 20
135.2731
  0
VERTEX
  8
LAYER_1
 10
86.2507
 20
135.2731
  0
SEQEND
  0
POLYLINE
  8
LAYER_1
  6
AIGENLINE024
 40
0.1411
 41
0.1411
 66
1
 10
0
 20
0
 30
0
 70
128
  0
VERTEX
  8
LAYER_1
 10
86.25
 20
135.2731
  0
VERTEX
  8
LAYER_1
 10
86.25
 20
135.723
  0
SEQEND
  0
POLYLINE
  8
LAYER_1
 40
0.1411
 41
0.1411
 66
1
 10
0
 20
0
 30
0
  0
VERTEX
  8
LAYER_1
 10
86.1577
 20
135.9393
  0
VERTEX
  8
LAYER_1
 10
85.9028
 20
136.1839
  0
SEQEND
  0
POLYLINE
  8
LAYER_1
 40
0.1411
 41
0.1411
 66
1
 10
0
 20
0
 30
0
  0
VERTEX
  8
LAYER_1
 10
85.601
 20
136.474
  0
VERTEX
  8
LAYER_1
 10
85.346
 20
136.7179
  0
SEQEND
  0
POLYLINE
  8
LAYER_1
  6
AIGENLINE025
 40
0.1411
 41
0.1411
 66
1
 10
0
 20
0
 30
0
 70
128
  0
VERTEX
  8
LAYER_1
 10
86.25
 20
135.723
 42
0.2012736211
  0
VERTEX
  8
LAYER_1
 10
86.1577
 20
135.9393
  0
SEQEND
  0
POLYLINE
  8
LAYER_1
 40
0.1411
 41
0.1411
 66
1
 10
0
 20
0
 30
0
  0
VERTEX
  8
LAYER_1
 10
85.14
 20
136.8013
  0
VERTEX
  8
LAYER_1
 10
84.7872
 20
136.8041
  0
SEQEND
  0
POLYLINE
  8
LAYER_1
  6
AIGENLINE026
 40
0.1411
 41
0.1411
 66
1
 10
0
 20
0
 30
0
 70
128
  0
VERTEX
  8
LAYER_1
 10
84.1037
 20
136.8068
  0
VERTEX
  8
LAYER_1
 10
68.0344
 20
136.8778
  0
SEQEND
  0
POLYLINE
  8
LAYER_1
 40
0.1411
 41
0.1411
 66
1
 10
0
 20
0
 30
0
  0
VERTEX
  8
LAYER_1
 10
67.692
 20
136.8792
  0
VERTEX
  8
LAYER_1
 10
67.3392
 20
136.8819
  0
SEQEND
  0
POLYLINE
  8
LAYER_1
  6
AIGENLINE027
 40
0.1411
 41
0.1411
 66
1
 10
0
 20
0
 30
0
 70
128
  0
VERTEX
  8
LAYER_1
 10
85.346
 20
136.7179
 42
0.193863954
  0
VERTEX
  8
LAYER_1
 10
85.14
 20
136.8013
  0
SEQEND
  0
POLYLINE
  8
LAYER_1
 40
0.1411
 41
0.1411
 66
1
 10
0
 20
0
 30
0
  0
VERTEX
  8
LAYER_1
 10
67.3392
 20
136.8812
 42
0.1116702685
  0
VERTEX
  8
LAYER_1
 10
66.9926
 20
136.8289
  0
SEQEND
  0
POLYLINE
  8
LAYER_1
 40
0.1411
 41
0.1411
 66
1
 10
0
 20
0
 30
0
  0
VERTEX
  8
LAYER_1
 10
66.7253
 20
136.6587
 42
0.1115627316
  0
VERTEX
  8
LAYER_1
 10
66.5331
 20
136.3651
  0
VERTEX
  8
LAYER_1
 10
66.4083
 20
136.0351
  0
SEQEND
  0
POLYLINE
  8
LAYER_1
  6
AIGENLINE028
 40
0.1411
 41
0.1411
 66
1
 10
0
 20
0
 30
0
 70
128
  0
VERTEX
  8
LAYER_1
 10
66.2444
 20
135.601
  0
VERTEX
  8
LAYER_1
 10
65.9991
 20
134.9485
  0
SEQEND
  0
POLYLINE
  8
LAYER_1
 40
0.1411
 41
0.1411
 66
1
 10
0
 20
0
 30
0
  0
VERTEX
  8
LAYER_1
 10
65.9171
 20
134.7315
  0
VERTEX
  8
LAYER_1
 10
65.7924
 20
134.4008
  0
SEQEND
  0
POLYLINE
  8
LAYER_1
  6
AIGENLINE029
 40
0.1411
 41
0.1411
 66
1
 10
0
 20
0
 30
0
 70
128
  0
VERTEX
  8
LAYER_1
 10
65.605
 20
134.2712
 42
0.3017835771
  0
VERTEX
  8
LAYER_1
 10
65.7924
 20
134.4014
  0
SEQEND
  0
POLYLINE
  8
LAYER_1
 40
0.1411
 41
0.1411
 66
1
 10
0
 20
0
 30
0
  0
VERTEX
  8
LAYER_1
 10
91.5424
 20
135.2731
  0
VERTEX
  8
LAYER_1
 10
91.5424
 20
135.6245
  0
SEQEND
  0
POLYLINE
  8
LAYER_1
 40
0.1411
 41
0.1411
 66
1
 10
0
 20
0
 30
0
  0
VERTEX
  8
LAYER_1
 10
91.5424
 20
136.1343
  0
VERTEX
  8
LAYER_1
 10
91.5424
 20
136.4864
  0
SEQEND
  0
POLYLINE
  8
LAYER_1
  6
AIGENLINE023
 40
0.1411
 41
0.1411
 66
1
 10
0
 20
0
 30
0
 70
128
  0
VERTEX
  8
LAYER_1
 10
91.6044
 20
136.6318
 42
0.1987565557
  0
VERTEX
  8
LAYER_1
 10
91.5431
 20
136.4864
  0
SEQEND
  0
POLYLINE
  8
LAYER_1
 40
0.1411
 41
0.1411
 66
1
 10
0
 20
0
 30
0
  0
VERTEX
  8
LAYER_1
 10
91.6044
 20
136.6318
  0
VERTEX
  8
LAYER_1
 10
91.8586
 20
136.875
  0
SEQEND
  0
POLYLINE
  8
LAYER_1
 40
0.1411
 41
0.1411
 66
1
 10
0
 20
0
 30
0
  0
VERTEX
  8
LAYER_1
 10
92.487
 20
137.4779
  0
VERTEX
  8
LAYER_1
 10
92.7413
 20
137.7218
  0
SEQEND
  0
POLYLINE
  8
LAYER_1
  6
AIGENLINE030
 40
0.1411
 41
0.1411
 66
1
 10
0
 20
0
 30
0
 70
128
  0
VERTEX
  8
LAYER_1
 10
92.8646
 20
137.7769
 42
0.1827343258
  0
VERTEX
  8
LAYER_1
 10
92.7406
 20
137.7218
  0
SEQEND
  0
POLYLINE
  8
LAYER_1
 40
0.1411
 41
0.1411
 66
1
 10
0
 20
0
 30
0
  0
VERTEX
  8
LAYER_1
 10
64.7437
 20
134.2712
  0
VERTEX
  8
LAYER_1
 10
65.0958
 20
134.2712
  0
SEQEND
  0
POLYLINE
  8
LAYER_1
 40
0.1411
 41
0.1411
 66
1
 10
0
 20
0
 30
0
  0
VERTEX
  8
LAYER_1
 10
65.2522
 20
134.2712
  0
VERTEX
  8
LAYER_1
 10
65.605
 20
134.2712
  0
SEQEND
  0
POLYLINE
  8
LAYER_1
  6
AIGENLINE029
 40
0.1411
 41
0.1411
 66
1
 10
0
 20
0
 30
0
 70
128
  0
VERTEX
  8
LAYER_1
 10
112.696
 20
134.4008
 42
0.3126918193
  0
VERTEX
  8
LAYER_1
 10
112.8827
 20
134.2712
  0
SEQEND
  0
POLYLINE
  8
LAYER_1
 40
0.1411
 41
0.1411
 66
1
 10
0
 20
0
 30
0
  0
VERTEX
  8
LAYER_1
 10
112.696
 20
134.4008
  0
VERTEX
  8
LAYER_1
 10
112.5719
 20
134.7315
  0
SEQEND
  0
POLYLINE
  8
LAYER_1
  6
AIGENLINE028
 40
0.1411
 41
0.1411
 66
1
 10
0
 20
0
 30
0
 70
128
  0
VERTEX
  8
LAYER_1
 10
112.4073
 20
135.1663
  0
VERTEX
  8
LAYER_1
 10
112.162
 20
135.8174
  0
SEQEND
  0
POLYLINE
  8
LAYER_1
 40
0.1411
 41
0.1411
 66
1
 10
0
 20
0
 30
0
  0
VERTEX
  8
LAYER_1
 10
112.08
 20
136.0351
  0
VERTEX
  8
LAYER_1
 10
111.956
 20
136.3658
  0
SEQEND
  0
POLYLINE
  8
LAYER_1
 40
0.1411
 41
0.1411
 66
1
 10
0
 20
0
 30
0
  0
VERTEX
  8
LAYER_1
 10
111.956
 20
136.3651
 42
0.1063539859
  0
VERTEX
  8
LAYER_1
 10
111.7637
 20
136.6587
  0
SEQEND
  0
POLYLINE
  8
LAYER_1
 40
0.1411
 41
0.1411
 66
1
 10
0
 20
0
 30
0
  0
VERTEX
  8
LAYER_1
 10
111.495
 20
136.8289
 42
0.1120191568
  0
VERTEX
  8
LAYER_1
 10
111.1491
 20
136.8812
  0
SEQEND
  0
POLYLINE
  8
LAYER_1
 40
0.1411
 41
0.1411
 66
1
 10
0
 20
0
 30
0
  0
VERTEX
  8
LAYER_1
 10
111.1491
 20
136.8812
  0
VERTEX
  8
LAYER_1
 10
110.7956
 20
136.8792
  0
SEQEND
  0
POLYLINE
  8
LAYER_1
  6
AIGENLINE031
 40
0.1411
 41
0.1411
 66
1
 10
0
 20
0
 30
0
 70
128
  0
VERTEX
  8
LAYER_1
 10
110.1115
 20
136.8764
  0
VERTEX
  8
LAYER_1
 10
94.0394
 20
136.8054
  0
SEQEND
  0
POLYLINE
  8
LAYER_1
 40
0.1411
 41
0.1411
 66
1
 10
0
 20
0
 30
0
  0
VERTEX
  8
LAYER_1
 10
93.6976
 20
136.8041
  0
VERTEX
  8
LAYER_1
 10
93.3449
 20
136.8013
  0
SEQEND
  0
POLYLINE
  8
LAYER_1
  6
AIGENLINE027
 40
0.1411
 41
0.1411
 66
1
 10
0
 20
0
 30
0
 70
128
  0
VERTEX
  8
LAYER_1
 10
93.3449
 20
136.8013
 42
0.1919295763
  0
VERTEX
  8
LAYER_1
 10
93.1388
 20
136.7179
  0
SEQEND
  0
POLYLINE
  8
LAYER_1
 40
0.1411
 41
0.1411
 66
1
 10
0
 20
0
 30
0
  0
VERTEX
  8
LAYER_1
 10
93.1388
 20
136.7179
  0
VERTEX
  8
LAYER_1
 10
92.8839
 20
136.474
  0
SEQEND
  0
POLYLINE
  8
LAYER_1
 40
0.1411
 41
0.1411
 66
1
 10
0
 20
0
 30
0
  0
VERTEX
  8
LAYER_1
 10
92.5821
 20
136.1839
  0
VERTEX
  8
LAYER_1
 10
92.3272
 20
135.9393
  0
SEQEND
  0
POLYLINE
  8
LAYER_1
  6
AIGENLINE024
 40
0.1411
 41
0.1411
 66
1
 10
0
 20
0
 30
0
 70
128
  0
VERTEX
  8
LAYER_1
 10
92.2355
 20
135.723
  0
VERTEX
  8
LAYER_1
 10
92.2355
 20
135.2731
  0
SEQEND
  0
POLYLINE
  8
LAYER_1
  6
AIGENLINE025
 40
0.1411
 41
0.1411
 66
1
 10
0
 20
0
 30
0
 70
128
  0
VERTEX
  8
LAYER_1
 10
92.3279
 20
135.9393
 42
0.201385434
  0
VERTEX
  8
LAYER_1
 10
92.2355
 20
135.723
  0
SEQEND
  0
POLYLINE
  8
LAYER_1
  6
AIGENLINE003
 40
0.1411
 41
0.1411
 66
1
 10
0
 20
0
 30
0
 70
128
  0
VERTEX
  8
LAYER_1
 10
92.2355
 20
135.2731
  0
VERTEX
  8
LAYER_1
 10
91.5431
 20
135.2731
  0
SEQEND
  0
POLYLINE
  8
LAYER_1
 40
0.1411
 41
0.1411
 66
1
 10
0
 20
0
 30
0
  0
VERTEX
  8
LAYER_1
 10
116.2458
 20
134.2712
 42
0.03694735143
  0
VERTEX
  8
LAYER_1
 10
115.922
 20
134.4125
  0
SEQEND
  0
POLYLINE
  8
LAYER_1
  6
AIGENLINE032
 40
0.1411
 41
0.1411
 66
1
 10
0
 20
0
 30
0
 70
128
  0
VERTEX
  8
LAYER_1
 10
115.3101
 20
134.5565
 42
0.0863393131
  0
VERTEX
  8
LAYER_1
 10
114.3703
 20
134.502
  0
SEQEND
  0
POLYLINE
  8
LAYER_1
 40
0.1411
 41
0.1411
 66
1
 10
0
 20
0
 30
0
  0
VERTEX
  8
LAYER_1
 10
114.0692
 20
134.4125
 42
0.03198423205
  0
VERTEX
  8
LAYER_1
 10
113.7447
 20
134.2712
  0
SEQEND
  0
POLYLINE
  8
LAYER_1
 40
0.1411
 41
0.1411
 66
1
 10
0
 20
0
 30
0
  0
VERTEX
  8
LAYER_1
 10
116.2458
 20
134.2712
  0
VERTEX
  8
LAYER_1
 10
116.5979
 20
134.2712
  0
SEQEND
  0
POLYLINE
  8
LAYER_1
 40
0.1411
 41
0.1411
 66
1
 10
0
 20
0
 30
0
  0
VERTEX
  8
LAYER_1
 10
116.7157
 20
134.2712
  0
VERTEX
  8
LAYER_1
 10
117.0685
 20
134.2712
  0
SEQEND
  0
POLYLINE
  8
LAYER_1
  6
AIGENLINE033
 40
0.1411
 41
0.1411
 66
1
 10
0
 20
0
 30
0
 70
128
  0
VERTEX
  8
LAYER_1
 10
117.0685
 20
134.2712
 42
0.3632830094
  0
VERTEX
  8
LAYER_1
 10
117.2662
 20
134.4469
  0
SEQEND
  0
POLYLINE
  8
LAYER_1
 40
0.1411
 41
0.1411
 66
1
 10
0
 20
0
 30
0
  0
VERTEX
  8
LAYER_1
 10
117.2662
 20
134.4469
  0
VERTEX
  8
LAYER_1
 10
117.3096
 20
134.7983
  0
SEQEND
  0
POLYLINE
  8
LAYER_1
  6
AIGENLINE034
 40
0.1411
 41
0.1411
 66
1
 10
0
 20
0
 30
0
 70
128
  0
VERTEX
  8
LAYER_1
 10
117.3923
 20
135.4756
  0
VERTEX
  8
LAYER_1
 10
119.1769
 20
150.0432
  0
SEQEND
  0
POLYLINE
  8
LAYER_1
 40
0.1411
 41
0.1411
 66
1
 10
0
 20
0
 30
0
  0
VERTEX
  8
LAYER_1
 10
119.2168
 20
150.3829
  0
VERTEX
  8
LAYER_1
 10
119.2596
 20
150.7329
  0
SEQEND
  0
POLYLINE
  8
LAYER_1
 40
0.1411
 41
0.1411
 66
1
 10
0
 20
0
 30
0
  0
VERTEX
  8
LAYER_1
 10
119.7563
 20
151.1718
 42
0.1783628104
  0
VERTEX
  8
LAYER_1
 10
119.4318
 20
151.0519
  0
SEQEND
  0
POLYLINE
  8
LAYER_1
 40
0.1411
 41
0.1411
 66
1
 10
0
 20
0
 30
0
  0
VERTEX
  8
LAYER_1
 10
119.4187
 20
151.0402
 42
0.1764028926
  0
VERTEX
  8
LAYER_1
 10
119.2596
 20
150.7329
  0
SEQEND
  0
POLYLINE
  8
LAYER_1
 40
0.1411
 41
0.1411
 66
1
 10
0
 20
0
 30
0
  0
VERTEX
  8
LAYER_1
 10
119.7563
 20
151.1718
  0
VERTEX
  8
LAYER_1
 10
120.1091
 20
151.1718
  0
SEQEND
  0
POLYLINE
  8
LAYER_1
  6
AIGENLINE035
 40
0.1411
 41
0.1411
 66
1
 10
0
 20
0
 30
0
 70
128
  0
VERTEX
  8
LAYER_1
 10
120.8257
 20
151.1718
  0
VERTEX
  8
LAYER_1
 10
123.3344
 20
151.1718
  0
SEQEND
  0
POLYLINE
  8
LAYER_1
 40
0.1411
 41
0.1411
 66
1
 10
0
 20
0
 30
0
  0
VERTEX
  8
LAYER_1
 10
123.692
 20
151.1718
  0
VERTEX
  8
LAYER_1
 10
124.0455
 20
151.1718
  0
SEQEND
  0
POLYLINE
  8
LAYER_1
  6
AIGENLINE036
 40
0.1411
 41
0.1411
 66
1
 10
0
 20
0
 30
0
 70
128
  0
VERTEX
  8
LAYER_1
 10
124.0455
 20
151.1718
 42
0.3942405976
  0
VERTEX
  8
LAYER_1
 10
124.2453
 20
151.3723
  0
SEQEND
  0
POLYLINE
  8
LAYER_1
  6
AIGENLINE009
 40
0.1411
 41
0.1411
 66
1
 10
0
 20
0
 30
0
 70
128
  0
VERTEX
  8
LAYER_1
 10
124.2453
 20
151.3723
  0
VERTEX
  8
LAYER_1
 10
124.2453
 20
152.0724
  0
SEQEND
  0
POLYLINE
  8
LAYER_1
  6
AIGENLINE036
 40
0.1411
 41
0.1411
 66
1
 10
0
 20
0
 30
0
 70
128
  0
VERTEX
  8
LAYER_1
 10
124.2453
 20
152.0724
 42
0.414151312
  0
VERTEX
  8
LAYER_1
 10
124.0455
 20
152.2722
  0
SEQEND
  0
POLYLINE
  8
LAYER_1
 40
0.1411
 41
0.1411
 66
1
 10
0
 20
0
 30
0
  0
VERTEX
  8
LAYER_1
 10
124.0455
 20
152.2715
  0
VERTEX
  8
LAYER_1
 10
123.692
 20
152.2715
  0
SEQEND
  0
POLYLINE
  8
LAYER_1
  6
AIGENLINE037
 40
0.1411
 41
0.1411
 66
1
 10
0
 20
0
 30
0
 70
128
  0
VERTEX
  8
LAYER_1
 10
123.0278
 20
152.2715
  0
VERTEX
  8
LAYER_1
 10
119.3705
 20
152.2715
  0
SEQEND
  0
POLYLINE
  8
LAYER_1
 40
0.1411
 41
0.1411
 66
1
 10
0
 20
0
 30
0
  0
VERTEX
  8
LAYER_1
 10
119.0391
 20
152.2715
  0
VERTEX
  8
LAYER_1
 10
118.6842
 20
152.2715
  0
SEQEND
  0
POLYLINE
  8
LAYER_1
 40
0.1411
 41
0.1411
 66
1
 10
0
 20
0
 30
0
  0
VERTEX
  8
LAYER_1
 10
60.2995
 20
151.8353
 42
0.1786020784
  0
VERTEX
  8
LAYER_1
 10
60.139
 20
152.142
  0
SEQEND
  0
POLYLINE
  8
LAYER_1
 40
0.1411
 41
0.1411
 66
1
 10
0
 20
0
 30
0
  0
VERTEX
  8
LAYER_1
 10
60.1286
 20
152.1523
 42
0.1755401082
  0
VERTEX
  8
LAYER_1
 10
59.8041
 20
152.2715
  0
SEQEND
  0
POLYLINE
  8
LAYER_1
 40
0.1411
 41
0.1411
 66
1
 10
0
 20
0
 30
0
  0
VERTEX
  8
LAYER_1
 10
60.2995
 20
151.8353
  0
VERTEX
  8
LAYER_1
 10
60.345
 20
151.486
  0
SEQEND
  0
POLYLINE
  8
LAYER_1
  6
AIGENLINE038
 40
0.1411
 41
0.1411
 66
1
 10
0
 20
0
 30
0
 70
128
  0
VERTEX
  8
LAYER_1
 10
60.4387
 20
150.7522
  0
VERTEX
  8
LAYER_1
 10
61.8987
 20
139.3934
  0
SEQEND
  0
POLYLINE
  8
LAYER_1
 40
0.1411
 41
0.1411
 66
1
 10
0
 20
0
 30
0
  0
VERTEX
  8
LAYER_1
 10
61.9463
 20
139.0275
  0
VERTEX
  8
LAYER_1
 10
61.991
 20
138.6768
  0
SEQEND
  0
POLYLINE
  8
LAYER_1
  6
AIGENLINE039
 40
0.1411
 41
0.1411
 66
1
 10
0
 20
0
 30
0
 70
128
  0
VERTEX
  8
LAYER_1
 10
61.991
 20
138.6768
 42
0.3429965454
  0
VERTEX
  8
LAYER_1
 10
62.4506
 20
138.2427
  0
SEQEND
  0
POLYLINE
  8
LAYER_1
 40
0.1411
 41
0.1411
 66
1
 10
0
 20
0
 30
0
  0
VERTEX
  8
LAYER_1
 10
62.4506
 20
138.2427
  0
VERTEX
  8
LAYER_1
 10
62.8034
 20
138.2338
  0
SEQEND
  0
POLYLINE
  8
LAYER_1
  6
AIGENLINE040
 40
0.1411
 41
0.1411
 66
1
 10
0
 20
0
 30
0
 70
128
  0
VERTEX
  8
LAYER_1
 10
63.5282
 20
138.2207
  0
VERTEX
  8
LAYER_1
 10
84.9051
 20
137.7914
  0
SEQEND
  0
POLYLINE
  8
LAYER_1
 40
0.1411
 41
0.1411
 66
1
 10
0
 20
0
 30
0
  0
VERTEX
  8
LAYER_1
 10
85.2682
 20
137.7845
  0
VERTEX
  8
LAYER_1
 10
85.621
 20
137.7769
  0
SEQEND
  0
POLYLINE
  8
LAYER_1
 40
0.1411
 41
0.1411
 66
1
 10
0
 20
0
 30
0
  0
VERTEX
  8
LAYER_1
 10
92.8646
 20
137.7769
  0
VERTEX
  8
LAYER_1
 10
93.2174
 20
137.7845
  0
SEQEND
  0
POLYLINE
  8
LAYER_1
  6
AIGENLINE040
 40
0.1411
 41
0.1411
 66
1
 10
0
 20
0
 30
0
 70
128
  0
VERTEX
  8
LAYER_1
 10
93.9422
 20
137.799
  0
VERTEX
  8
LAYER_1
 10
115.3218
 20
138.2269
  0
SEQEND
  0
POLYLINE
  8
LAYER_1
 40
0.1411
 41
0.1411
 66
1
 10
0
 20
0
 30
0
  0
VERTEX
  8
LAYER_1
 10
115.6849
 20
138.2351
  0
VERTEX
  8
LAYER_1
 10
116.0377
 20
138.2427
  0
SEQEND
  0
POLYLINE
  8
LAYER_1
  6
AIGENLINE039
 40
0.1411
 41
0.1411
 66
1
 10
0
 20
0
 30
0
 70
128
  0
VERTEX
  8
LAYER_1
 10
116.0384
 20
138.2427
 42
0.3430774662
  0
VERTEX
  8
LAYER_1
 10
116.4973
 20
138.6768
  0
SEQEND
  0
POLYLINE
  8
LAYER_1
 40
0.1411
 41
0.1411
 66
1
 10
0
 20
0
 30
0
  0
VERTEX
  8
LAYER_1
 10
116.4973
 20
138.6768
  0
VERTEX
  8
LAYER_1
 10
116.5421
 20
139.0275
  0
SEQEND
  0
POLYLINE
  8
LAYER_1
  6
AIGENLINE038
 40
0.1411
 41
0.1411
 66
1
 10
0
 20
0
 30
0
 70
128
  0
VERTEX
  8
LAYER_1
 10
116.6372
 20
139.7591
  0
VERTEX
  8
LAYER_1
 10
118.0972
 20
151.1195
  0
SEQEND
  0
POLYLINE
  8
LAYER_1
 40
0.1411
 41
0.1411
 66
1
 10
0
 20
0
 30
0
  0
VERTEX
  8
LAYER_1
 10
118.144
 20
151.486
  0
VERTEX
  8
LAYER_1
 10
118.1888
 20
151.8353
  0
SEQEND
  0
POLYLINE
  8
LAYER_1
 40
0.1411
 41
0.1411
 66
1
 10
0
 20
0
 30
0
  0
VERTEX
  8
LAYER_1
 10
118.6842
 20
152.2715
 42
0.1776269562
  0
VERTEX
  8
LAYER_1
 10
118.3611
 20
152.1523
  0
SEQEND
  0
POLYLINE
  8
LAYER_1
 40
0.1411
 41
0.1411
 66
1
 10
0
 20
0
 30
0
  0
VERTEX
  8
LAYER_1
 10
118.3494
 20
152.142
 42
0.1778887905
  0
VERTEX
  8
LAYER_1
 10
118.1888
 20
151.8353
  0
SEQEND
  0
POLYLINE
  8
LAYER_1
 40
0.1411
 41
0.1411
 66
1
 10
0
 20
0
 30
0
  0
VERTEX
  8
LAYER_1
 10
59.8034
 20
152.2715
  0
VERTEX
  8
LAYER_1
 10
59.4506
 20
152.2715
  0
SEQEND
  0
POLYLINE
  8
LAYER_1
  6
AIGENLINE037
 40
0.1411
 41
0.1411
 66
1
 10
0
 20
0
 30
0
 70
128
  0
VERTEX
  8
LAYER_1
 10
58.785
 20
152.2715
  0
VERTEX
  8
LAYER_1
 10
55.1277
 20
152.2715
  0
SEQEND
  0
POLYLINE
  8
LAYER_1
 40
0.1411
 41
0.1411
 66
1
 10
0
 20
0
 30
0
  0
VERTEX
  8
LAYER_1
 10
54.7956
 20
152.2715
  0
VERTEX
  8
LAYER_1
 10
54.4435
 20
152.2715
  0
SEQEND
  0
POLYLINE
  8
LAYER_1
  6
AIGENLINE036
 40
0.1411
 41
0.1411
 66
1
 10
0
 20
0
 30
0
 70
128
  0
VERTEX
  8
LAYER_1
 10
54.4435
 20
152.2715
 42
0.3925465509
  0
VERTEX
  8
LAYER_1
 10
54.2423
 20
152.0717
  0
SEQEND
  0
POLYLINE
  8
LAYER_1
  6
AIGENLINE009
 40
0.1411
 41
0.1411
 66
1
 10
0
 20
0
 30
0
 70
128
  0
VERTEX
  8
LAYER_1
 10
54.2437
 20
152.0724
  0
VERTEX
  8
LAYER_1
 10
54.2437
 20
151.3723
  0
SEQEND
  0
POLYLINE
  8
LAYER_1
  6
AIGENLINE036
 40
0.1411
 41
0.1411
 66
1
 10
0
 20
0
 30
0
 70
128
  0
VERTEX
  8
LAYER_1
 10
54.2437
 20
151.3723
 42
0.3925182535
  0
VERTEX
  8
LAYER_1
 10
54.4435
 20
151.1718
  0
SEQEND
  0
POLYLINE
  8
LAYER_1
 40
0.1411
 41
0.1411
 66
1
 10
0
 20
0
 30
0
  0
VERTEX
  8
LAYER_1
 10
54.4435
 20
151.1718
  0
VERTEX
  8
LAYER_1
 10
54.7956
 20
151.1718
  0
SEQEND
  0
POLYLINE
  8
LAYER_1
  6
AIGENLINE035
 40
0.1411
 41
0.1411
 66
1
 10
0
 20
0
 30
0
 70
128
  0
VERTEX
  8
LAYER_1
 10
55.5122
 20
151.1718
  0
VERTEX
  8
LAYER_1
 10
58.0216
 20
151.1718
  0
SEQEND
  0
POLYLINE
  8
LAYER_1
 40
0.1411
 41
0.1411
 66
1
 10
0
 20
0
 30
0
  0
VERTEX
  8
LAYER_1
 10
58.3792
 20
151.1718
  0
VERTEX
  8
LAYER_1
 10
58.732
 20
151.1718
  0
SEQEND
  0
POLYLINE
  8
LAYER_1
 40
0.1411
 41
0.1411
 66
1
 10
0
 20
0
 30
0
  0
VERTEX
  8
LAYER_1
 10
59.2288
 20
150.7329
 42
0.1745938624
  0
VERTEX
  8
LAYER_1
 10
59.0703
 20
151.0402
  0
SEQEND
  0
POLYLINE
  8
LAYER_1
 40
0.1411
 41
0.1411
 66
1
 10
0
 20
0
 30
0
  0
VERTEX
  8
LAYER_1
 10
59.0572
 20
151.0519
 42
0.1765622119
  0
VERTEX
  8
LAYER_1
 10
58.7327
 20
151.1718
  0
SEQEND
  0
POLYLINE
  8
LAYER_1
 40
0.1411
 41
0.1411
 66
1
 10
0
 20
0
 30
0
  0
VERTEX
  8
LAYER_1
 10
59.2288
 20
150.7329
  0
VERTEX
  8
LAYER_1
 10
59.2708
 20
150.3829
  0
SEQEND
  0
POLYLINE
  8
LAYER_1
  6
AIGENLINE034
 40
0.1411
 41
0.1411
 66
1
 10
0
 20
0
 30
0
 70
128
  0
VERTEX
  8
LAYER_1
 10
59.3535
 20
149.7049
  0
VERTEX
  8
LAYER_1
 10
61.1374
 20
135.1366
  0
SEQEND
  0
POLYLINE
  8
LAYER_1
 40
0.1411
 41
0.1411
 66
1
 10
0
 20
0
 30
0
  0
VERTEX
  8
LAYER_1
 10
61.1787
 20
134.7983
  0
VERTEX
  8
LAYER_1
 10
61.2221
 20
134.4469
  0
SEQEND
  0
POLYLINE
  8
LAYER_1
  6
AIGENLINE033
 40
0.1411
 41
0.1411
 66
1
 10
0
 20
0
 30
0
 70
128
  0
VERTEX
  8
LAYER_1
 10
61.2207
 20
134.4469
 42
0.3572143813
  0
VERTEX
  8
LAYER_1
 10
61.4205
 20
134.2712
  0
SEQEND
  0
POLYLINE
  8
LAYER_1
 40
0.1411
 41
0.1411
 66
1
 10
0
 20
0
 30
0
  0
VERTEX
  8
LAYER_1
 10
61.4205
 20
134.2712
  0
VERTEX
  8
LAYER_1
 10
61.7733
 20
134.2712
  0
SEQEND
  0
POLYLINE
  8
LAYER_1
 40
0.1411
 41
0.1411
 66
1
 10
0
 20
0
 30
0
  0
VERTEX
  8
LAYER_1
 10
61.8905
 20
134.2712
  0
VERTEX
  8
LAYER_1
 10
62.2432
 20
134.2712
  0
SEQEND
  0
POLYLINE
  8
LAYER_1
 40
0.1411
 41
0.1411
 66
1
 10
0
 20
0
 30
0
  0
VERTEX
  8
LAYER_1
 10
64.7437
 20
134.2712
 42
0.03703171834
  0
VERTEX
  8
LAYER_1
 10
64.4198
 20
134.4125
  0
SEQEND
  0
POLYLINE
  8
LAYER_1
  6
AIGENLINE032
 40
0.1411
 41
0.1411
 66
1
 10
0
 20
0
 30
0
 70
128
  0
VERTEX
  8
LAYER_1
 10
63.808
 20
134.5565
 42
0.08640093086
  0
VERTEX
  8
LAYER_1
 10
62.8689
 20
134.502
  0
SEQEND
  0
POLYLINE
  8
LAYER_1
 40
0.1411
 41
0.1411
 66
1
 10
0
 20
0
 30
0
  0
VERTEX
  8
LAYER_1
 10
62.5671
 20
134.4125
 42
0.03286937824
  0
VERTEX
  8
LAYER_1
 10
62.2432
 20
134.2712
  0
SEQEND
  0
POLYLINE
  8
LAYER_1
  6
AIGENLINE041
 40
0.1411
 41
0.1411
 66
1
 10
0
 20
0
 30
0
 70
128
  0
VERTEX
  8
LAYER_1
 10
116.1349
 20
135.3916
 42
0.4176300499
  0
VERTEX
  8
LAYER_1
 10
116.3863
 20
135.5204
  0
VERTEX
  8
LAYER_1
 10
116.3953
 20
135.5576
  0
SEQEND
  0
POLYLINE
  8
LAYER_1
 40
0.1411
 41
0.1411
 66
1
 10
0
 20
0
 30
0
  0
VERTEX
  8
LAYER_1
 10
116.3953
 20
135.5576
  0
VERTEX
  8
LAYER_1
 10
116.4387
 20
135.9083
  0
SEQEND
  0
POLYLINE
  8
LAYER_1
 40
0.1411
 41
0.1411
 66
1
 10
0
 20
0
 30
0
  0
VERTEX
  8
LAYER_1
 10
116.5338
 20
136.6897
  0
VERTEX
  8
LAYER_1
 10
116.5772
 20
137.0397
  0
SEQEND
  0
POLYLINE
  8
LAYER_1
  6
AIGENLINE042
 40
0.1411
 41
0.1411
 66
1
 10
0
 20
0
 30
0
 70
128
  0
VERTEX
  8
LAYER_1
 10
116.5772
 20
137.0397
 42
0.3898366758
  0
VERTEX
  8
LAYER_1
 10
116.4029
 20
137.2623
  0
VERTEX
  8
LAYER_1
 10
116.3636
 20
137.2636
  0
SEQEND
  0
POLYLINE
  8
LAYER_1
 40
0.1411
 41
0.1411
 66
1
 10
0
 20
0
 30
0
  0
VERTEX
  8
LAYER_1
 10
116.3629
 20
137.2623
  0
VERTEX
  8
LAYER_1
 10
116.0108
 20
137.2368
  0
SEQEND
  0
POLYLINE
  8
LAYER_1
  6
AIGENLINE043
 40
0.1411
 41
0.1411
 66
1
 10
0
 20
0
 30
0
 70
128
  0
VERTEX
  8
LAYER_1
 10
115.142
 20
137.1741
  0
VERTEX
  8
LAYER_1
 10
113.8377
 20
137.0783
  0
SEQEND
  0
POLYLINE
  8
LAYER_1
 40
0.1411
 41
0.1411
 66
1
 10
0
 20
0
 30
0
  0
VERTEX
  8
LAYER_1
 10
113.4036
 20
137.0466
  0
VERTEX
  8
LAYER_1
 10
113.0515
 20
137.0204
  0
SEQEND
  0
POLYLINE
  8
LAYER_1
  6
AIGENLINE044
 40
0.1411
 41
0.1411
 66
1
 10
0
 20
0
 30
0
 70
128
  0
VERTEX
  8
LAYER_1
 10
113.0515
 20
137.0204
 42
0.3920083731
  0
VERTEX
  8
LAYER_1
 10
112.8662
 20
136.8068
  0
VERTEX
  8
LAYER_1
 10
112.8792
 20
136.7503
  0
SEQEND
  0
POLYLINE
  8
LAYER_1
 40
0.1411
 41
0.1411
 66
1
 10
0
 20
0
 30
0
  0
VERTEX
  8
LAYER_1
 10
112.8792
 20
136.751
  0
VERTEX
  8
LAYER_1
 10
113.0033
 20
136.4203
  0
SEQEND
  0
POLYLINE
  8
LAYER_1
 40
0.1411
 41
0.1411
 66
1
 10
0
 20
0
 30
0
  0
VERTEX
  8
LAYER_1
 10
113.2527
 20
135.7609
  0
VERTEX
  8
LAYER_1
 10
113.3767
 20
135.4301
  0
SEQEND
  0
POLYLINE
  8
LAYER_1
  6
AIGENLINE036
 40
0.1411
 41
0.1411
 66
1
 10
0
 20
0
 30
0
 70
128
  0
VERTEX
  8
LAYER_1
 10
113.3767
 20
135.4301
 42
0.3911280766
  0
VERTEX
  8
LAYER_1
 10
113.6344
 20
135.313
  0
SEQEND
  0
POLYLINE
  8
LAYER_1
 40
0.1411
 41
0.1411
 66
1
 10
0
 20
0
 30
0
  0
VERTEX
  8
LAYER_1
 10
116.1349
 20
135.3916
  0
VERTEX
  8
LAYER_1
 10
115.7952
 20
135.4853
  0
SEQEND
  0
POLYLINE
  8
LAYER_1
  6
AIGENLINE045
 40
0.1411
 41
0.1411
 66
1
 10
0
 20
0
 30
0
 70
128
  0
VERTEX
  8
LAYER_1
 10
115.1868
 20
135.5686
 42
0.06316371723
  0
VERTEX
  8
LAYER_1
 10
114.2718
 20
135.5039
  0
SEQEND
  0
POLYLINE
  8
LAYER_1
 40
0.1411
 41
0.1411
 66
1
 10
0
 20
0
 30
0
  0
VERTEX
  8
LAYER_1
 10
113.9693
 20
135.4288
  0
VERTEX
  8
LAYER_1
 10
113.6365
 20
135.3144
  0
SEQEND
  0
POLYLINE
  8
LAYER_1
  6
AIGENLINE041
 40
0.1411
 41
0.1411
 66
1
 10
0
 20
0
 30
0
 70
128
  0
VERTEX
  8
LAYER_1
 10
62.0937
 20
135.5576
 42
0.393834571
  0
VERTEX
  8
LAYER_1
 10
62.3163
 20
135.3833
  0
VERTEX
  8
LAYER_1
 10
62.3542
 20
135.3916
  0
SEQEND
  0
POLYLINE
  8
LAYER_1
 40
0.1411
 41
0.1411
 66
1
 10
0
 20
0
 30
0
  0
VERTEX
  8
LAYER_1
 10
62.0937
 20
135.5576
  0
VERTEX
  8
LAYER_1
 10
62.0503
 20
135.9083
  0
SEQEND
  0
POLYLINE
  8
LAYER_1
 40
0.1411
 41
0.1411
 66
1
 10
0
 20
0
 30
0
  0
VERTEX
  8
LAYER_1
 10
61.9552
 20
136.6897
  0
VERTEX
  8
LAYER_1
 10
61.9118
 20
137.0397
  0
SEQEND
  0
POLYLINE
  8
LAYER_1
  6
AIGENLINE046
 40
0.1411
 41
0.1411
 66
1
 10
0
 20
0
 30
0
 70
128
  0
VERTEX
  8
LAYER_1
 10
62.1254
 20
137.2623
 42
0.3943641551
  0
VERTEX
  8
LAYER_1
 10
61.9111
 20
137.0783
  0
VERTEX
  8
LAYER_1
 10
61.9118
 20
137.0397
  0
SEQEND
  0
POLYLINE
  8
LAYER_1
 40
0.1411
 41
0.1411
 66
1
 10
0
 20
0
 30
0
  0
VERTEX
  8
LAYER_1
 10
62.1254
 20
137.2623
  0
VERTEX
  8
LAYER_1
 10
62.4768
 20
137.2368
  0
SEQEND
  0
POLYLINE
  8
LAYER_1
  6
AIGENLINE043
 40
0.1411
 41
0.1411
 66
1
 10
0
 20
0
 30
0
 70
128
  0
VERTEX
  8
LAYER_1
 10
63.3463
 20
137.1741
  0
VERTEX
  8
LAYER_1
 10
64.6493
 20
137.0783
  0
SEQEND
  0
POLYLINE
  8
LAYER_1
 40
0.1411
 41
0.1411
 66
1
 10
0
 20
0
 30
0
  0
VERTEX
  8
LAYER_1
 10
65.0847
 20
137.0466
  0
VERTEX
  8
LAYER_1
 10
65.4361
 20
137.0204
  0
SEQEND
  0
POLYLINE
  8
LAYER_1
  6
AIGENLINE044
 40
0.1411
 41
0.1411
 66
1
 10
0
 20
0
 30
0
 70
128
  0
VERTEX
  8
LAYER_1
 10
65.6091
 20
136.751
 42
0.3934791661
  0
VERTEX
  8
LAYER_1
 10
65.492
 20
137.0087
  0
VERTEX
  8
LAYER_1
 10
65.4368
 20
137.0204
  0
SEQEND
  0
POLYLINE
  8
LAYER_1
 40
0.1411
 41
0.1411
 66
1
 10
0
 20
0
 30
0
  0
VERTEX
  8
LAYER_1
 10
65.6091
 20
136.751
  0
VERTEX
  8
LAYER_1
 10
65.4844
 20
136.4203
  0
SEQEND
  0
POLYLINE
  8
LAYER_1
 40
0.1411
 41
0.1411
 66
1
 10
0
 20
0
 30
0
  0
VERTEX
  8
LAYER_1
 10
65.2356
 20
135.7609
  0
VERTEX
  8
LAYER_1
 10
65.1116
 20
135.4301
  0
SEQEND
  0
POLYLINE
  8
LAYER_1
  6
AIGENLINE036
 40
0.1411
 41
0.1411
 66
1
 10
0
 20
0
 30
0
 70
128
  0
VERTEX
  8
LAYER_1
 10
64.8519
 20
135.3144
 42
0.3946612623
  0
VERTEX
  8
LAYER_1
 10
65.1102
 20
135.4288
  0
SEQEND
  0
POLYLINE
  8
LAYER_1
 40
0.1411
 41
0.1411
 66
1
 10
0
 20
0
 30
0
  0
VERTEX
  8
LAYER_1
 10
64.8519
 20
135.3144
  0
VERTEX
  8
LAYER_1
 10
64.5184
 20
135.4288
  0
SEQEND
  0
POLYLINE
  8
LAYER_1
  6
AIGENLINE045
 40
0.1411
 41
0.1411
 66
1
 10
0
 20
0
 30
0
 70
128
  0
VERTEX
  8
LAYER_1
 10
63.9162
 20
135.5493
 42
0.06469003664
  0
VERTEX
  8
LAYER_1
 10
62.9984
 20
135.5404
  0
SEQEND
  0
POLYLINE
  8
LAYER_1
 40
0.1411
 41
0.1411
 66
1
 10
0
 20
0
 30
0
  0
VERTEX
  8
LAYER_1
 10
62.6932
 20
135.4853
  0
VERTEX
  8
LAYER_1
 10
62.3542
 20
135.3916
  0
SEQEND
  0
POLYLINE
  8
LAYER_1
 40
0.1411
 41
0.1411
 66
1
 10
0
 20
0
 30
0
  0
VERTEX
  8
LAYER_1
 10
112.8827
 20
134.2712
  0
VERTEX
  8
LAYER_1
 10
113.2355
 20
134.2712
  0
SEQEND
  0
POLYLINE
  8
LAYER_1
 40
0.1411
 41
0.1411
 66
1
 10
0
 20
0
 30
0
  0
VERTEX
  8
LAYER_1
 10
113.3919
 20
134.2712
  0
VERTEX
  8
LAYER_1
 10
113.7447
 20
134.2712
  0
SEQEND
  0
POLYLINE
  8
LAYER_1
 40
0.1411
 41
0.1411
 66
1
 10
0
 20
0
 30
0
  0
VERTEX
  8
LAYER_1
 10
85.621
 20
137.7769
  0
VERTEX
  8
LAYER_1
 10
85.9737
 20
137.7769
  0
SEQEND
  0
POLYLINE
  8
LAYER_1
  6
AIGENLINE047
 40
0.1411
 41
0.1411
 66
1
 10
0
 20
0
 30
0
 70
128
  0
VERTEX
  8
LAYER_1
 10
86.6993
 20
137.7769
  0
VERTEX
  8
LAYER_1
 10
92.1487
 20
137.7769
  0
SEQEND
  0
POLYLINE
  8
LAYER_1
 40
0.1411
 41
0.1411
 66
1
 10
0
 20
0
 30
0
  0
VERTEX
  8
LAYER_1
 10
92.5118
 20
137.7769
  0
VERTEX
  8
LAYER_1
 10
92.8646
 20
137.7769
  0
SEQEND
  0
POLYLINE
  8
LAYER_1
 40
0.1411
 41
0.1411
 66
1
 10
0
 20
0
 30
0
  0
VERTEX
  8
LAYER_1
 10
86.8812
 20
136.6318
  0
VERTEX
  8
LAYER_1
 10
87.2346
 20
136.6318
  0
SEQEND
  0
POLYLINE
  8
LAYER_1
  6
AIGENLINE048
 40
0.1411
 41
0.1411
 66
1
 10
0
 20
0
 30
0
 70
128
  0
VERTEX
  8
LAYER_1
 10
88.038
 20
136.6318
  0
VERTEX
  8
LAYER_1
 10
90.8499
 20
136.6318
  0
SEQEND
  0
POLYLINE
  8
LAYER_1
 40
0.1411
 41
0.1411
 66
1
 10
0
 20
0
 30
0
  0
VERTEX
  8
LAYER_1
 10
91.2516
 20
136.6318
  0
VERTEX
  8
LAYER_1
 10
91.6044
 20
136.6318
  0
SEQEND
  0
POLYLINE
  8
LAYER_1
 40
0.1411
 41
0.1411
 66
1
 10
0
 20
0
 30
0
  0
VERTEX
  8
LAYER_1
 10
86.9432
 20
135.2731
  0
VERTEX
  8
LAYER_1
 10
87.296
 20
135.2731
  0
SEQEND
  0
POLYLINE
  8
LAYER_1
  6
AIGENLINE049
 40
0.1411
 41
0.1411
 66
1
 10
0
 20
0
 30
0
 70
128
  0
VERTEX
  8
LAYER_1
 10
88.0746
 20
135.2731
  0
VERTEX
  8
LAYER_1
 10
90.8003
 20
135.2731
  0
SEQEND
  0
POLYLINE
  8
LAYER_1
 40
0.1411
 41
0.1411
 66
1
 10
0
 20
0
 30
0
  0
VERTEX
  8
LAYER_1
 10
91.1896
 20
135.2731
  0
VERTEX
  8
LAYER_1
 10
91.5424
 20
135.2731
  0
SEQEND
  0
POLYLINE
  8
LAYER_1
 40
0.1411
 41
0.1411
 66
1
 10
0
 20
0
 30
0
  0
VERTEX
  8
LAYER_1
 10
62.2439
 20
134.2712
  0
VERTEX
  8
LAYER_1
 10
62.596
 20
134.2712
  0
SEQEND
  0
POLYLINE
  8
LAYER_1
  6
AIGENLINE050
 40
0.1411
 41
0.1411
 66
1
 10
0
 20
0
 30
0
 70
128
  0
VERTEX
  8
LAYER_1
 10
63.1941
 20
134.2712
  0
VERTEX
  8
LAYER_1
 10
64.0912
 20
134.2712
  0
SEQEND
  0
POLYLINE
  8
LAYER_1
 40
0.1411
 41
0.1411
 66
1
 10
0
 20
0
 30
0
  0
VERTEX
  8
LAYER_1
 10
64.3902
 20
134.2712
  0
VERTEX
  8
LAYER_1
 10
64.7437
 20
134.2712
  0
SEQEND
  0
POLYLINE
  8
LAYER_1
 40
0.1411
 41
0.1411
 66
1
 10
0
 20
0
 30
0
  0
VERTEX
  8
LAYER_1
 10
65.605
 20
134.2712
  0
VERTEX
  8
LAYER_1
 10
65.9577
 20
134.2712
  0
SEQEND
  0
POLYLINE
  8
LAYER_1
  6
AIGENLINE051
 40
0.1411
 41
0.1411
 66
1
 10
0
 20
0
 30
0
 70
128
  0
VERTEX
  8
LAYER_1
 10
66.6536
 20
134.2712
  0
VERTEX
  8
LAYER_1
 10
112.1833
 20
134.2712
  0
SEQEND
  0
POLYLINE
  8
LAYER_1
 40
0.1411
 41
0.1411
 66
1
 10
0
 20
0
 30
0
  0
VERTEX
  8
LAYER_1
 10
112.5306
 20
134.2712
  0
VERTEX
  8
LAYER_1
 10
112.8827
 20
134.2712
  0
SEQEND
  0
POLYLINE
  8
LAYER_1
 40
0.1411
 41
0.1411
 66
1
 10
0
 20
0
 30
0
  0
VERTEX
  8
LAYER_1
 10
113.7447
 20
134.2712
  0
VERTEX
  8
LAYER_1
 10
114.0981
 20
134.2712
  0
SEQEND
  0
POLYLINE
  8
LAYER_1
  6
AIGENLINE052
 40
0.1411
 41
0.1411
 66
1
 10
0
 20
0
 30
0
 70
128
  0
VERTEX
  8
LAYER_1
 10
114.6948
 20
134.2712
  0
VERTEX
  8
LAYER_1
 10
115.5926
 20
134.2712
  0
SEQEND
  0
POLYLINE
  8
LAYER_1
 40
0.1411
 41
0.1411
 66
1
 10
0
 20
0
 30
0
  0
VERTEX
  8
LAYER_1
 10
115.8923
 20
134.2712
  0
VERTEX
  8
LAYER_1
 10
116.2451
 20
134.2712
  0
SEQEND
  0
POLYLINE
  8
LAYER_1
 40
0.1411
 41
0.1411
 66
1
 10
0
 20
0
 30
0
  0
VERTEX
  8
LAYER_1
 10
59.8034
 20
152.2715
  0
VERTEX
  8
LAYER_1
 10
60.1562
 20
152.2715
  0
SEQEND
  0
POLYLINE
  8
LAYER_1
  6
AIGENLINE053
 40
0.1411
 41
0.1411
 66
1
 10
0
 20
0
 30
0
 70
128
  0
VERTEX
  8
LAYER_1
 10
60.8576
 20
152.2715
  0
VERTEX
  8
LAYER_1
 10
117.9821
 20
152.2715
  0
SEQEND
  0
POLYLINE
  8
LAYER_1
 40
0.1411
 41
0.1411
 66
1
 10
0
 20
0
 30
0
  0
VERTEX
  8
LAYER_1
 10
118.3328
 20
152.2715
  0
VERTEX
  8
LAYER_1
 10
118.6842
 20
152.2715
  0
SEQEND
  0
POLYLINE
  8
LAYER_1
 40
0.1411
 41
0.1411
 66
1
 10
0
 20
0
 30
0
  0
VERTEX
  8
LAYER_1
 10
123.8953
 20
150.5627
  0
VERTEX
  8
LAYER_1
 10
123.8953
 20
150.9162
  0
VERTEX
  8
LAYER_1
 10
123.5425
 20
150.9162
  0
SEQEND
  0
POLYLINE
  8
LAYER_1
  6
AIGENLINE054
 40
0.1411
 41
0.1411
 66
1
 10
0
 20
0
 30
0
 70
128
  0
VERTEX
  8
LAYER_1
 10
122.8838
 20
150.9155
  0
VERTEX
  8
LAYER_1
 10
120.577
 20
150.9155
  0
SEQEND
  0
POLYLINE
  8
LAYER_1
 40
0.1411
 41
0.1411
 66
1
 10
0
 20
0
 30
0
  0
VERTEX
  8
LAYER_1
 10
120.2483
 20
150.9155
  0
VERTEX
  8
LAYER_1
 10
119.8955
 20
150.9155
  0
VERTEX
  8
LAYER_1
 10
119.8955
 20
150.5627
  0
SEQEND
  0
POLYLINE
  8
LAYER_1
 40
0.1411
 41
0.1411
 66
1
 10
0
 20
0
 30
0
  0
VERTEX
  8
LAYER_1
 10
119.8955
 20
150.2685
  0
VERTEX
  8
LAYER_1
 10
119.8955
 20
149.9151
  0
VERTEX
  8
LAYER_1
 10
120.2483
 20
149.9151
  0
SEQEND
  0
POLYLINE
  8
LAYER_1
  6
AIGENLINE054
 40
0.1411
 41
0.1411
 66
1
 10
0
 20
0
 30
0
 70
128
  0
VERTEX
  8
LAYER_1
 10
120.9063
 20
149.9151
  0
VERTEX
  8
LAYER_1
 10
123.2132
 20
149.9151
  0
SEQEND
  0
POLYLINE
  8
LAYER_1
 40
0.1411
 41
0.1411
 66
1
 10
0
 20
0
 30
0
  0
VERTEX
  8
LAYER_1
 10
123.5425
 20
149.9151
  0
VERTEX
  8
LAYER_1
 10
123.8953
 20
149.9151
  0
VERTEX
  8
LAYER_1
 10
123.8953
 20
150.2685
  0
SEQEND
  0
POLYLINE
  8
LAYER_1
 40
0.1411
 41
0.1411
 66
1
 10
0
 20
0
 30
0
  0
VERTEX
  8
LAYER_1
 10
54.5931
 20
150.5627
  0
VERTEX
  8
LAYER_1
 10
54.5931
 20
150.9162
  0
VERTEX
  8
LAYER_1
 10
54.9472
 20
150.9162
  0
SEQEND
  0
POLYLINE
  8
LAYER_1
  6
AIGENLINE054
 40
0.1411
 41
0.1411
 66
1
 10
0
 20
0
 30
0
 70
128
  0
VERTEX
  8
LAYER_1
 10
55.6052
 20
150.9155
  0
VERTEX
  8
LAYER_1
 10
57.9114
 20
150.9155
  0
SEQEND
  0
POLYLINE
  8
LAYER_1
 40
0.1411
 41
0.1411
 66
1
 10
0
 20
0
 30
0
  0
VERTEX
  8
LAYER_1
 10
58.2407
 20
150.9155
  0
VERTEX
  8
LAYER_1
 10
58.5935
 20
150.9155
  0
VERTEX
  8
LAYER_1
 10
58.5935
 20
150.5627
  0
SEQEND
  0
POLYLINE
  8
LAYER_1
 40
0.1411
 41
0.1411
 66
1
 10
0
 20
0
 30
0
  0
VERTEX
  8
LAYER_1
 10
58.5935
 20
150.2685
  0
VERTEX
  8
LAYER_1
 10
58.5935
 20
149.9151
  0
VERTEX
  8
LAYER_1
 10
58.2407
 20
149.9151
  0
SEQEND
  0
POLYLINE
  8
LAYER_1
  6
AIGENLINE054
 40
0.1411
 41
0.1411
 66
1
 10
0
 20
0
 30
0
 70
128
  0
VERTEX
  8
LAYER_1
 10
57.582
 20
149.9151
  0
VERTEX
  8
LAYER_1
 10
55.2745
 20
149.9151
  0
SEQEND
  0
POLYLINE
  8
LAYER_1
 40
0.1411
 41
0.1411
 66
1
 10
0
 20
0
 30
0
  0
VERTEX
  8
LAYER_1
 10
54.9458
 20
149.9151
  0
VERTEX
  8
LAYER_1
 10
54.5931
 20
149.9151
  0
VERTEX
  8
LAYER_1
 10
54.5931
 20
150.2685
  0
SEQEND
  0
POLYLINE
  8
LAYER_1
 40
0.1411
 41
0.1411
 66
1
 10
0
 20
0
 30
0
  0
VERTEX
  8
LAYER_1
 10
116.345
 20
138.3778
  0
VERTEX
  8
LAYER_1
 10
115.9922
 20
138.3778
  0
SEQEND
  0
POLYLINE
  8
LAYER_1
  6
AIGENLINE055
 40
0.1411
 41
0.1411
 66
1
 10
0
 20
0
 30
0
 70
128
  0
VERTEX
  8
LAYER_1
 10
115.2784
 20
138.3778
  0
VERTEX
  8
LAYER_1
 10
62.853
 20
138.3778
  0
SEQEND
  0
POLYLINE
  8
LAYER_1
 40
0.1411
 41
0.1411
 66
1
 10
0
 20
0
 30
0
  0
VERTEX
  8
LAYER_1
 10
62.4961
 20
138.3778
  0
VERTEX
  8
LAYER_1
 10
62.1433
 20
138.3778
  0
SEQEND
  0
POLYLINE
  8
LAYER_1
 40
0.1411
 41
0.1411
 66
1
 10
0
 20
0
 30
0
  0
VERTEX
  8
LAYER_1
 10
86.4457
 20
134.6722
  0
VERTEX
  8
LAYER_1
 10
86.0922
 20
134.6722
  0
VERTEX
  8
LAYER_1
 10
86.0922
 20
134.972
  0
VERTEX
  8
LAYER_1
 10
86.4457
 20
134.972
  0
SEQEND
  0
POLYLINE
  8
LAYER_1
  6
AIGENLINE056
 40
0.1411
 41
0.1411
 66
1
 10
0
 20
0
 30
0
 70
128
  0
VERTEX
  8
LAYER_1
 10
87.245
 20
134.972
  0
VERTEX
  8
LAYER_1
 10
91.6402
 20
134.972
  0
SEQEND
  0
POLYLINE
  8
LAYER_1
 40
0.1411
 41
0.1411
 66
1
 10
0
 20
0
 30
0
  0
VERTEX
  8
LAYER_1
 10
92.0399
 20
134.972
  0
VERTEX
  8
LAYER_1
 10
92.3926
 20
134.972
  0
VERTEX
  8
LAYER_1
 10
92.3926
 20
134.6722
  0
VERTEX
  8
LAYER_1
 10
92.0399
 20
134.6722
  0
SEQEND
  0
POLYLINE
  8
LAYER_1
  6
AIGENLINE056
 40
0.1411
 41
0.1411
 66
1
 10
0
 20
0
 30
0
 70
128
  0
VERTEX
  8
LAYER_1
 10
91.2406
 20
134.6722
  0
VERTEX
  8
LAYER_1
 10
86.8453
 20
134.6722
  0
SEQEND
  0
POLYLINE
  8
LAYER_1
 40
0.1411
 41
0.1411
 66
1
 10
0
 20
0
 30
0
  0
VERTEX
  8
LAYER_1
 10
86.4457
 20
134.972
  0
VERTEX
  8
LAYER_1
 10
86.0922
 20
134.972
  0
VERTEX
  8
LAYER_1
 10
86.0922
 20
135.2731
  0
VERTEX
  8
LAYER_1
 10
86.4457
 20
135.2731
  0
SEQEND
  0
POLYLINE
  8
LAYER_1
  6
AIGENLINE056
 40
0.1411
 41
0.1411
 66
1
 10
0
 20
0
 30
0
 70
128
  0
VERTEX
  8
LAYER_1
 10
87.245
 20
135.2731
  0
VERTEX
  8
LAYER_1
 10
91.6402
 20
135.2731
  0
SEQEND
  0
POLYLINE
  8
LAYER_1
 40
0.1411
 41
0.1411
 66
1
 10
0
 20
0
 30
0
  0
VERTEX
  8
LAYER_1
 10
92.0399
 20
135.2731
  0
VERTEX
  8
LAYER_1
 10
92.3926
 20
135.2731
  0
VERTEX
  8
LAYER_1
 10
92.3926
 20
134.972
  0
VERTEX
  8
LAYER_1
 10
92.0399
 20
134.972
  0
SEQEND
  0
POLYLINE
  8
LAYER_1
  6
AIGENLINE056
 40
0.1411
 41
0.1411
 66
1
 10
0
 20
0
 30
0
 70
128
  0
VERTEX
  8
LAYER_1
 10
91.2406
 20
134.972
  0
VERTEX
  8
LAYER_1
 10
86.8453
 20
134.972
  0
SEQEND
  0
POLYLINE
  8
LAYER_1
 40
0.1411
 41
0.1411
 66
1
 10
0
 20
0
 30
0
  0
VERTEX
  8
LAYER_1
 10
87.1458
 20
134.2712
  0
VERTEX
  8
LAYER_1
 10
86.7923
 20
134.2712
  0
VERTEX
  8
LAYER_1
 10
86.7923
 20
134.6736
  0
VERTEX
  8
LAYER_1
 10
87.1458
 20
134.6736
  0
SEQEND
  0
POLYLINE
  8
LAYER_1
  6
AIGENLINE057
 40
0.1411
 41
0.1411
 66
1
 10
0
 20
0
 30
0
 70
128
  0
VERTEX
  8
LAYER_1
 10
87.7445
 20
134.6736
  0
VERTEX
  8
LAYER_1
 10
91.0408
 20
134.6736
  0
SEQEND
  0
POLYLINE
  8
LAYER_1
 40
0.1411
 41
0.1411
 66
1
 10
0
 20
0
 30
0
  0
VERTEX
  8
LAYER_1
 10
91.3405
 20
134.6736
  0
VERTEX
  8
LAYER_1
 10
91.6926
 20
134.6736
  0
VERTEX
  8
LAYER_1
 10
91.6926
 20
134.2712
  0
VERTEX
  8
LAYER_1
 10
91.3405
 20
134.2712
  0
SEQEND
  0
POLYLINE
  8
LAYER_1
  6
AIGENLINE057
 40
0.1411
 41
0.1411
 66
1
 10
0
 20
0
 30
0
 70
128
  0
VERTEX
  8
LAYER_1
 10
90.7404
 20
134.2712
  0
VERTEX
  8
LAYER_1
 10
87.4448
 20
134.2712
  0
SEQEND
  0
INSERT
  8
LAYER_1
  2
AIGNBL0101002C
 10
0
 20
0
 30
0
  0
POLYLINE
  8
LAYER_1
 40
0.1411
 41
0.1411
 66
1
 10
0
 20
0
 30
0
  0
VERTEX
  8
LAYER_1
 10
86.9432
 20
135.2731
  0
VERTEX
  8
LAYER_1
 10
87.296
 20
135.2731
  0
SEQEND
  0
POLYLINE
  8
LAYER_1
  6
AIGENLINE049
 40
0.1411
 41
0.1411
 66
1
 10
0
 20
0
 30
0
 70
128
  0
VERTEX
  8
LAYER_1
 10
88.0746
 20
135.2731
  0
VERTEX
  8
LAYER_1
 10
90.8003
 20
135.2731
  0
SEQEND
  0
POLYLINE
  8
LAYER_1
 40
0.1411
 41
0.1411
 66
1
 10
0
 20
0
 30
0
  0
VERTEX
  8
LAYER_1
 10
91.1896
 20
135.2731
  0
VERTEX
  8
LAYER_1
 10
91.5424
 20
135.2731
  0
SEQEND
  0
POLYLINE
  8
LAYER_1
 40
0.1411
 41
0.1411
 66
1
 10
0
 20
0
 30
0
  0
VERTEX
  8
LAYER_1
 10
182.176
 20
134.6708
  0
VERTEX
  8
LAYER_1
 10
181.8232
 20
134.6708
  0
VERTEX
  8
LAYER_1
 10
181.8232
 20
134.972
  0
VERTEX
  8
LAYER_1
 10
182.176
 20
134.972
  0
SEQEND
  0
POLYLINE
  8
LAYER_1
  6
AIGENLINE056
 40
0.1411
 41
0.1411
 66
1
 10
0
 20
0
 30
0
 70
128
  0
VERTEX
  8
LAYER_1
 10
182.9752
 20
134.972
  0
VERTEX
  8
LAYER_1
 10
187.3712
 20
134.972
  0
SEQEND
  0
POLYLINE
  8
LAYER_1
 40
0.1411
 41
0.1411
 66
1
 10
0
 20
0
 30
0
  0
VERTEX
  8
LAYER_1
 10
187.7701
 20
134.972
  0
VERTEX
  8
LAYER_1
 10
188.1229
 20
134.972
  0
VERTEX
  8
LAYER_1
 10
188.1229
 20
134.6708
  0
VERTEX
  8
LAYER_1
 10
187.7701
 20
134.6708
  0
SEQEND
  0
POLYLINE
  8
LAYER_1
  6
AIGENLINE056
 40
0.1411
 41
0.1411
 66
1
 10
0
 20
0
 30
0
 70
128
  0
VERTEX
  8
LAYER_1
 10
186.9715
 20
134.6708
  0
VERTEX
  8
LAYER_1
 10
182.5749
 20
134.6708
  0
SEQEND
  0
POLYLINE
  8
LAYER_1
 40
0.1411
 41
0.1411
 66
1
 10
0
 20
0
 30
0
  0
VERTEX
  8
LAYER_1
 10
182.176
 20
134.972
  0
VERTEX
  8
LAYER_1
 10
181.8232
 20
134.972
  0
VERTEX
  8
LAYER_1
 10
181.8232
 20
135.2717
  0
VERTEX
  8
LAYER_1
 10
182.176
 20
135.2717
  0
SEQEND
  0
POLYLINE
  8
LAYER_1
  6
AIGENLINE056
 40
0.1411
 41
0.1411
 66
1
 10
0
 20
0
 30
0
 70
128
  0
VERTEX
  8
LAYER_1
 10
182.9752
 20
135.2717
  0
VERTEX
  8
LAYER_1
 10
187.3712
 20
135.2717
  0
SEQEND
  0
POLYLINE
  8
LAYER_1
 40
0.1411
 41
0.1411
 66
1
 10
0
 20
0
 30
0
  0
VERTEX
  8
LAYER_1
 10
187.7701
 20
135.2717
  0
VERTEX
  8
LAYER_1
 10
188.1229
 20
135.2717
  0
VERTEX
  8
LAYER_1
 10
188.1229
 20
134.972
  0
VERTEX
  8
LAYER_1
 10
187.7701
 20
134.972
  0
SEQEND
  0
POLYLINE
  8
LAYER_1
  6
AIGENLINE056
 40
0.1411
 41
0.1411
 66
1
 10
0
 20
0
 30
0
 70
128
  0
VERTEX
  8
LAYER_1
 10
186.9715
 20
134.972
  0
VERTEX
  8
LAYER_1
 10
182.5749
 20
134.972
  0
SEQEND
  0
POLYLINE
  8
LAYER_1
 40
0.1411
 41
0.1411
 66
1
 10
0
 20
0
 30
0
  0
VERTEX
  8
LAYER_1
 10
182.8753
 20
134.2712
  0
VERTEX
  8
LAYER_1
 10
182.5232
 20
134.2712
  0
VERTEX
  8
LAYER_1
 10
182.5232
 20
134.6736
  0
VERTEX
  8
LAYER_1
 10
182.8753
 20
134.6736
  0
SEQEND
  0
POLYLINE
  8
LAYER_1
  6
AIGENLINE057
 40
0.1411
 41
0.1411
 66
1
 10
0
 20
0
 30
0
 70
128
  0
VERTEX
  8
LAYER_1
 10
183.4755
 20
134.6722
  0
VERTEX
  8
LAYER_1
 10
186.7703
 20
134.6722
  0
SEQEND
  0
POLYLINE
  8
LAYER_1
 40
0.1411
 41
0.1411
 66
1
 10
0
 20
0
 30
0
  0
VERTEX
  8
LAYER_1
 10
187.0701
 20
134.6722
  0
VERTEX
  8
LAYER_1
 10
187.4228
 20
134.6722
  0
VERTEX
  8
LAYER_1
 10
187.4228
 20
134.2712
  0
VERTEX
  8
LAYER_1
 10
187.0701
 20
134.2712
  0
SEQEND
  0
POLYLINE
  8
LAYER_1
  6
AIGENLINE057
 40
0.1411
 41
0.1411
 66
1
 10
0
 20
0
 30
0
 70
128
  0
VERTEX
  8
LAYER_1
 10
186.4706
 20
134.2712
  0
VERTEX
  8
LAYER_1
 10
183.1743
 20
134.2712
  0
SEQEND
  0
POLYLINE
  8
LAYER_1
  6
AIGENLINE030
 40
0.1411
 41
0.1411
 66
1
 10
0
 20
0
 30
0
 70
128
  0
VERTEX
  8
LAYER_1
 10
181.4745
 20
137.7218
 42
0.1825691523
  0
VERTEX
  8
LAYER_1
 10
181.3498
 20
137.7769
  0
SEQEND
  0
POLYLINE
  8
LAYER_1
 40
0.1411
 41
0.1411
 66
1
 10
0
 20
0
 30
0
  0
VERTEX
  8
LAYER_1
 10
181.4745
 20
137.7218
  0
VERTEX
  8
LAYER_1
 10
181.7295
 20
137.4772
  0
SEQEND
  0
POLYLINE
  8
LAYER_1
 40
0.1411
 41
0.1411
 66
1
 10
0
 20
0
 30
0
  0
VERTEX
  8
LAYER_1
 10
182.3572
 20
136.875
  0
VERTEX
  8
LAYER_1
 10
182.6114
 20
136.6304
  0
SEQEND
  0
POLYLINE
  8
LAYER_1
  6
AIGENLINE023
 40
0.1411
 41
0.1411
 66
1
 10
0
 20
0
 30
0
 70
128
  0
VERTEX
  8
LAYER_1
 10
182.6734
 20
136.4864
 42
0.2013359559
  0
VERTEX
  8
LAYER_1
 10
182.6114
 20
136.6304
  0
SEQEND
  0
POLYLINE
  8
LAYER_1
 40
0.1411
 41
0.1411
 66
1
 10
0
 20
0
 30
0
  0
VERTEX
  8
LAYER_1
 10
182.6734
 20
136.4864
  0
VERTEX
  8
LAYER_1
 10
182.6734
 20
136.1343
  0
SEQEND
  0
POLYLINE
  8
LAYER_1
 40
0.1411
 41
0.1411
 66
1
 10
0
 20
0
 30
0
  0
VERTEX
  8
LAYER_1
 10
182.6734
 20
135.6245
  0
VERTEX
  8
LAYER_1
 10
182.6734
 20
135.2717
  0
SEQEND
  0
POLYLINE
  8
LAYER_1
  6
AIGENLINE003
 40
0.1411
 41
0.1411
 66
1
 10
0
 20
0
 30
0
 70
128
  0
VERTEX
  8
LAYER_1
 10
182.6734
 20
135.2717
  0
VERTEX
  8
LAYER_1
 10
181.9803
 20
135.2717
  0
SEQEND
  0
POLYLINE
  8
LAYER_1
  6
AIGENLINE058
 40
0.1411
 41
0.1411
 66
1
 10
0
 20
0
 30
0
 70
128
  0
VERTEX
  8
LAYER_1
 10
181.9803
 20
135.2717
  0
VERTEX
  8
LAYER_1
 10
181.9803
 20
135.8505
  0
SEQEND
  0
POLYLINE
  8
LAYER_1
 40
0.1411
 41
0.1411
 66
1
 10
0
 20
0
 30
0
  0
VERTEX
  8
LAYER_1
 10
181.9803
 20
135.8505
  0
VERTEX
  8
LAYER_1
 10
181.726
 20
136.0944
  0
SEQEND
  0
POLYLINE
  8
LAYER_1
 40
0.1411
 41
0.1411
 66
1
 10
0
 20
0
 30
0
  0
VERTEX
  8
LAYER_1
 10
181.2444
 20
136.5574
  0
VERTEX
  8
LAYER_1
 10
180.9908
 20
136.8006
  0
SEQEND
  0
POLYLINE
  8
LAYER_1
 40
0.1411
 41
0.1411
 66
1
 10
0
 20
0
 30
0
  0
VERTEX
  8
LAYER_1
 10
180.9908
 20
136.7999
  0
VERTEX
  8
LAYER_1
 10
180.6381
 20
136.8054
  0
SEQEND
  0
POLYLINE
  8
LAYER_1
  6
AIGENLINE059
 40
0.1411
 41
0.1411
 66
1
 10
0
 20
0
 30
0
 70
128
  0
VERTEX
  8
LAYER_1
 10
179.9739
 20
136.8123
  0
VERTEX
  8
LAYER_1
 10
175.004
 20
136.8723
  0
SEQEND
  0
POLYLINE
  8
LAYER_1
 40
0.1411
 41
0.1411
 66
1
 10
0
 20
0
 30
0
  0
VERTEX
  8
LAYER_1
 10
174.6732
 20
136.8764
  0
VERTEX
  8
LAYER_1
 10
174.3198
 20
136.8819
  0
SEQEND
  0
POLYLINE
  8
LAYER_1
 40
0.1411
 41
0.1411
 66
1
 10
0
 20
0
 30
0
  0
VERTEX
  8
LAYER_1
 10
174.3198
 20
136.8812
 42
0.1114373372
  0
VERTEX
  8
LAYER_1
 10
173.9732
 20
136.8289
  0
SEQEND
  0
POLYLINE
  8
LAYER_1
 40
0.1411
 41
0.1411
 66
1
 10
0
 20
0
 30
0
  0
VERTEX
  8
LAYER_1
 10
173.7052
 20
136.6587
 42
0.1077995304
  0
VERTEX
  8
LAYER_1
 10
173.5129
 20
136.3651
  0
SEQEND
  0
POLYLINE
  8
LAYER_1
 40
0.1411
 41
0.1411
 66
1
 10
0
 20
0
 30
0
  0
VERTEX
  8
LAYER_1
 10
173.5129
 20
136.3651
  0
VERTEX
  8
LAYER_1
 10
173.3882
 20
136.0351
  0
SEQEND
  0
POLYLINE
  8
LAYER_1
  6
AIGENLINE028
 40
0.1411
 41
0.1411
 66
1
 10
0
 20
0
 30
0
 70
128
  0
VERTEX
  8
LAYER_1
 10
173.2249
 20
135.601
  0
VERTEX
  8
LAYER_1
 10
172.9789
 20
134.9485
  0
SEQEND
  0
POLYLINE
  8
LAYER_1
 40
0.1411
 41
0.1411
 66
1
 10
0
 20
0
 30
0
  0
VERTEX
  8
LAYER_1
 10
172.8969
 20
134.7315
  0
VERTEX
  8
LAYER_1
 10
172.7729
 20
134.4008
  0
SEQEND
  0
POLYLINE
  8
LAYER_1
  6
AIGENLINE060
 40
0.1411
 41
0.1411
 66
1
 10
0
 20
0
 30
0
 70
128
  0
VERTEX
  8
LAYER_1
 10
172.5862
 20
134.2712
 42
0.3006608713
  0
VERTEX
  8
LAYER_1
 10
172.7729
 20
134.4014
  0
SEQEND
  0
POLYLINE
  8
LAYER_1
 40
0.1411
 41
0.1411
 66
1
 10
0
 20
0
 30
0
  0
VERTEX
  8
LAYER_1
 10
187.2733
 20
135.2717
  0
VERTEX
  8
LAYER_1
 10
187.2733
 20
135.6245
  0
SEQEND
  0
POLYLINE
  8
LAYER_1
 40
0.1411
 41
0.1411
 66
1
 10
0
 20
0
 30
0
  0
VERTEX
  8
LAYER_1
 10
187.2733
 20
136.1343
  0
VERTEX
  8
LAYER_1
 10
187.2733
 20
136.4864
  0
SEQEND
  0
POLYLINE
  8
LAYER_1
  6
AIGENLINE023
 40
0.1411
 41
0.1411
 66
1
 10
0
 20
0
 30
0
 70
128
  0
VERTEX
  8
LAYER_1
 10
187.3346
 20
136.6304
 42
0.2021405037
  0
VERTEX
  8
LAYER_1
 10
187.2733
 20
136.4864
  0
SEQEND
  0
POLYLINE
  8
LAYER_1
 40
0.1411
 41
0.1411
 66
1
 10
0
 20
0
 30
0
  0
VERTEX
  8
LAYER_1
 10
187.3346
 20
136.6304
  0
VERTEX
  8
LAYER_1
 10
187.5889
 20
136.875
  0
SEQEND
  0
POLYLINE
  8
LAYER_1
 40
0.1411
 41
0.1411
 66
1
 10
0
 20
0
 30
0
  0
VERTEX
  8
LAYER_1
 10
188.2166
 20
137.4772
  0
VERTEX
  8
LAYER_1
 10
188.4715
 20
137.7218
  0
SEQEND
  0
POLYLINE
  8
LAYER_1
  6
AIGENLINE030
 40
0.1411
 41
0.1411
 66
1
 10
0
 20
0
 30
0
 70
128
  0
VERTEX
  8
LAYER_1
 10
188.5949
 20
137.7769
 42
0.1795936732
  0
VERTEX
  8
LAYER_1
 10
188.4715
 20
137.7218
  0
SEQEND
  0
POLYLINE
  8
LAYER_1
 40
0.1411
 41
0.1411
 66
1
 10
0
 20
0
 30
0
  0
VERTEX
  8
LAYER_1
 10
171.7242
 20
134.2712
  0
VERTEX
  8
LAYER_1
 10
172.077
 20
134.2712
  0
SEQEND
  0
POLYLINE
  8
LAYER_1
 40
0.1411
 41
0.1411
 66
1
 10
0
 20
0
 30
0
  0
VERTEX
  8
LAYER_1
 10
172.2327
 20
134.2712
  0
VERTEX
  8
LAYER_1
 10
172.5862
 20
134.2712
  0
SEQEND
  0
POLYLINE
  8
LAYER_1
  6
AIGENLINE029
 40
0.1411
 41
0.1411
 66
1
 10
0
 20
0
 30
0
 70
128
  0
VERTEX
  8
LAYER_1
 10
195.3576
 20
134.4008
 42
0.3018504833
  0
VERTEX
  8
LAYER_1
 10
195.545
 20
134.2712
  0
SEQEND
  0
POLYLINE
  8
LAYER_1
 40
0.1411
 41
0.1411
 66
1
 10
0
 20
0
 30
0
  0
VERTEX
  8
LAYER_1
 10
195.3576
 20
134.4008
  0
VERTEX
  8
LAYER_1
 10
195.2336
 20
134.7315
  0
SEQEND
  0
POLYLINE
  8
LAYER_1
  6
AIGENLINE028
 40
0.1411
 41
0.1411
 66
1
 10
0
 20
0
 30
0
 70
128
  0
VERTEX
  8
LAYER_1
 10
195.0703
 20
135.1663
  0
VERTEX
  8
LAYER_1
 10
194.8236
 20
135.8174
  0
SEQEND
  0
POLYLINE
  8
LAYER_1
 40
0.1411
 41
0.1411
 66
1
 10
0
 20
0
 30
0
  0
VERTEX
  8
LAYER_1
 10
194.7423
 20
136.0351
  0
VERTEX
  8
LAYER_1
 10
194.6176
 20
136.3658
  0
SEQEND
  0
POLYLINE
  8
LAYER_1
 40
0.1411
 41
0.1411
 66
1
 10
0
 20
0
 30
0
  0
VERTEX
  8
LAYER_1
 10
194.6176
 20
136.3651
 42
0.1099897895
  0
VERTEX
  8
LAYER_1
 10
194.4247
 20
136.6587
  0
SEQEND
  0
POLYLINE
  8
LAYER_1
 40
0.1411
 41
0.1411
 66
1
 10
0
 20
0
 30
0
  0
VERTEX
  8
LAYER_1
 10
194.158
 20
136.8289
 42
0.1112327651
  0
VERTEX
  8
LAYER_1
 10
193.8107
 20
136.8812
  0
SEQEND
  0
POLYLINE
  8
LAYER_1
 40
0.1411
 41
0.1411
 66
1
 10
0
 20
0
 30
0
  0
VERTEX
  8
LAYER_1
 10
193.8107
 20
136.8812
  0
VERTEX
  8
LAYER_1
 10
193.4573
 20
136.875
  0
SEQEND
  0
POLYLINE
  8
LAYER_1
  6
AIGENLINE061
 40
0.1411
 41
0.1411
 66
1
 10
0
 20
0
 30
0
 70
128
  0
VERTEX
  8
LAYER_1
 10
192.6277
 20
136.8619
  0
VERTEX
  8
LAYER_1
 10
189.7235
 20
136.8123
  0
SEQEND
  0
POLYLINE
  8
LAYER_1
 40
0.1411
 41
0.1411
 66
1
 10
0
 20
0
 30
0
  0
VERTEX
  8
LAYER_1
 10
189.3087
 20
136.8068
  0
VERTEX
  8
LAYER_1
 10
188.9552
 20
136.7999
  0
VERTEX
  8
LAYER_1
 10
188.7003
 20
136.5574
  0
SEQEND
  0
POLYLINE
  8
LAYER_1
 40
0.1411
 41
0.1411
 66
1
 10
0
 20
0
 30
0
  0
VERTEX
  8
LAYER_1
 10
188.22
 20
136.0944
  0
VERTEX
  8
LAYER_1
 10
187.9658
 20
135.8505
  0
SEQEND
  0
POLYLINE
  8
LAYER_1
  6
AIGENLINE058
 40
0.1411
 41
0.1411
 66
1
 10
0
 20
0
 30
0
 70
128
  0
VERTEX
  8
LAYER_1
 10
187.9658
 20
135.8505
  0
VERTEX
  8
LAYER_1
 10
187.9658
 20
135.2717
  0
SEQEND
  0
POLYLINE
  8
LAYER_1
  6
AIGENLINE003
 40
0.1411
 41
0.1411
 66
1
 10
0
 20
0
 30
0
 70
128
  0
VERTEX
  8
LAYER_1
 10
187.9658
 20
135.2717
  0
VERTEX
  8
LAYER_1
 10
187.2733
 20
135.2717
  0
SEQEND
  0
POLYLINE
  8
LAYER_1
 40
0.1411
 41
0.1411
 66
1
 10
0
 20
0
 30
0
  0
VERTEX
  8
LAYER_1
 10
198.906
 20
134.2712
 42
0.03769994027
  0
VERTEX
  8
LAYER_1
 10
198.5836
 20
134.4125
  0
SEQEND
  0
POLYLINE
  8
LAYER_1
  6
AIGENLINE032
 40
0.1411
 41
0.1411
 66
1
 10
0
 20
0
 30
0
 70
128
  0
VERTEX
  8
LAYER_1
 10
197.9717
 20
134.5565
 42
0.08646399165
  0
VERTEX
  8
LAYER_1
 10
197.0326
 20
134.502
  0
SEQEND
  0
POLYLINE
  8
LAYER_1
 40
0.1411
 41
0.1411
 66
1
 10
0
 20
0
 30
0
  0
VERTEX
  8
LAYER_1
 10
196.7301
 20
134.4125
 42
0.02987645176
  0
VERTEX
  8
LAYER_1
 10
196.407
 20
134.2712
  0
SEQEND
  0
POLYLINE
  8
LAYER_1
  6
AIGENLINE033
 40
0.1411
 41
0.1411
 66
1
 10
0
 20
0
 30
0
 70
128
  0
VERTEX
  8
LAYER_1
 10
199.7294
 20
134.2712
 42
0.3624054096
  0
VERTEX
  8
LAYER_1
 10
199.9285
 20
134.4469
  0
SEQEND
  0
POLYLINE
  8
LAYER_1
 40
0.1411
 41
0.1411
 66
1
 10
0
 20
0
 30
0
  0
VERTEX
  8
LAYER_1
 10
199.9285
 20
134.4469
  0
VERTEX
  8
LAYER_1
 10
199.9713
 20
134.7983
  0
SEQEND
  0
POLYLINE
  8
LAYER_1
  6
AIGENLINE034
 40
0.1411
 41
0.1411
 66
1
 10
0
 20
0
 30
0
 70
128
  0
VERTEX
  8
LAYER_1
 10
200.0546
 20
135.4756
  0
VERTEX
  8
LAYER_1
 10
201.8371
 20
150.0432
  0
SEQEND
  0
POLYLINE
  8
LAYER_1
 40
0.1411
 41
0.1411
 66
1
 10
0
 20
0
 30
0
  0
VERTEX
  8
LAYER_1
 10
201.8792
 20
150.3829
  0
VERTEX
  8
LAYER_1
 10
201.9219
 20
150.7329
  0
SEQEND
  0
POLYLINE
  8
LAYER_1
 40
0.1411
 41
0.1411
 66
1
 10
0
 20
0
 30
0
  0
VERTEX
  8
LAYER_1
 10
202.4173
 20
151.1718
 42
0.1774253343
  0
VERTEX
  8
LAYER_1
 10
202.0934
 20
151.0519
  0
SEQEND
  0
POLYLINE
  8
LAYER_1
 40
0.1411
 41
0.1411
 66
1
 10
0
 20
0
 30
0
  0
VERTEX
  8
LAYER_1
 10
202.081
 20
151.0402
 42
0.1790333784
  0
VERTEX
  8
LAYER_1
 10
201.9219
 20
150.7329
  0
SEQEND
  0
POLYLINE
  8
LAYER_1
 40
0.1411
 41
0.1411
 66
1
 10
0
 20
0
 30
0
  0
VERTEX
  8
LAYER_1
 10
202.4173
 20
151.1718
  0
VERTEX
  8
LAYER_1
 10
202.7701
 20
151.1718
  0
SEQEND
  0
POLYLINE
  8
LAYER_1
  6
AIGENLINE062
 40
0.1411
 41
0.1411
 66
1
 10
0
 20
0
 30
0
 70
128
  0
VERTEX
  8
LAYER_1
 10
203.4887
 20
151.1718
  0
VERTEX
  8
LAYER_1
 10
210.3127
 20
151.1718
  0
SEQEND
  0
POLYLINE
  8
LAYER_1
 40
0.1411
 41
0.1411
 66
1
 10
0
 20
0
 30
0
  0
VERTEX
  8
LAYER_1
 10
210.6724
 20
151.1718
  0
VERTEX
  8
LAYER_1
 10
211.0245
 20
151.1718
  0
SEQEND
  0
POLYLINE
  8
LAYER_1
  6
AIGENLINE036
 40
0.1411
 41
0.1411
 66
1
 10
0
 20
0
 30
0
 70
128
  0
VERTEX
  8
LAYER_1
 10
211.0245
 20
151.1718
 42
0.3952257693
  0
VERTEX
  8
LAYER_1
 10
211.2243
 20
151.3723
  0
SEQEND
  0
POLYLINE
  8
LAYER_1
  6
AIGENLINE009
 40
0.1411
 41
0.1411
 66
1
 10
0
 20
0
 30
0
 70
128
  0
VERTEX
  8
LAYER_1
 10
211.2243
 20
151.3723
  0
VERTEX
  8
LAYER_1
 10
211.2243
 20
152.0724
  0
SEQEND
  0
POLYLINE
  8
LAYER_1
  6
AIGENLINE036
 40
0.1411
 41
0.1411
 66
1
 10
0
 20
0
 30
0
 70
128
  0
VERTEX
  8
LAYER_1
 10
211.2243
 20
152.0724
 42
0.4141729377
  0
VERTEX
  8
LAYER_1
 10
211.0245
 20
152.2722
  0
SEQEND
  0
POLYLINE
  8
LAYER_1
 40
0.1411
 41
0.1411
 66
1
 10
0
 20
0
 30
0
  0
VERTEX
  8
LAYER_1
 10
211.0245
 20
152.2715
  0
VERTEX
  8
LAYER_1
 10
210.6724
 20
152.2715
  0
SEQEND
  0
POLYLINE
  8
LAYER_1
  6
AIGENLINE037
 40
0.1411
 41
0.1411
 66
1
 10
0
 20
0
 30
0
 70
128
  0
VERTEX
  8
LAYER_1
 10
210.0075
 20
152.2715
  0
VERTEX
  8
LAYER_1
 10
206.3502
 20
152.2715
  0
SEQEND
  0
POLYLINE
  8
LAYER_1
 40
0.1411
 41
0.1411
 66
1
 10
0
 20
0
 30
0
  0
VERTEX
  8
LAYER_1
 10
206.0167
 20
152.2715
  0
VERTEX
  8
LAYER_1
 10
205.6646
 20
152.2715
  0
SEQEND
  0
POLYLINE
  8
LAYER_1
 40
0.1411
 41
0.1411
 66
1
 10
0
 20
0
 30
0
  0
VERTEX
  8
LAYER_1
 10
167.2794
 20
151.8353
 42
0.1783180206
  0
VERTEX
  8
LAYER_1
 10
167.1195
 20
152.142
  0
SEQEND
  0
POLYLINE
  8
LAYER_1
 40
0.1411
 41
0.1411
 66
1
 10
0
 20
0
 30
0
  0
VERTEX
  8
LAYER_1
 10
167.1078
 20
152.1523
 42
0.1774435946
  0
VERTEX
  8
LAYER_1
 10
166.784
 20
152.2715
  0
SEQEND
  0
POLYLINE
  8
LAYER_1
 40
0.1411
 41
0.1411
 66
1
 10
0
 20
0
 30
0
  0
VERTEX
  8
LAYER_1
 10
167.2794
 20
151.8353
  0
VERTEX
  8
LAYER_1
 10
167.3242
 20
151.486
  0
SEQEND
  0
POLYLINE
  8
LAYER_1
  6
AIGENLINE038
 40
0.1411
 41
0.1411
 66
1
 10
0
 20
0
 30
0
 70
128
  0
VERTEX
  8
LAYER_1
 10
167.4192
 20
150.7522
  0
VERTEX
  8
LAYER_1
 10
168.8793
 20
139.3934
  0
SEQEND
  0
POLYLINE
  8
LAYER_1
 40
0.1411
 41
0.1411
 66
1
 10
0
 20
0
 30
0
  0
VERTEX
  8
LAYER_1
 10
168.9261
 20
139.0275
  0
VERTEX
  8
LAYER_1
 10
168.9716
 20
138.6768
  0
SEQEND
  0
POLYLINE
  8
LAYER_1
  6
AIGENLINE039
 40
0.1411
 41
0.1411
 66
1
 10
0
 20
0
 30
0
 70
128
  0
VERTEX
  8
LAYER_1
 10
168.9723
 20
138.6768
 42
0.3437669129
  0
VERTEX
  8
LAYER_1
 10
169.4305
 20
138.2427
  0
SEQEND
  0
POLYLINE
  8
LAYER_1
 40
0.1411
 41
0.1411
 66
1
 10
0
 20
0
 30
0
  0
VERTEX
  8
LAYER_1
 10
169.4305
 20
138.2427
  0
VERTEX
  8
LAYER_1
 10
169.784
 20
138.2283
  0
SEQEND
  0
POLYLINE
  8
LAYER_1
  6
AIGENLINE063
 40
0.1411
 41
0.1411
 66
1
 10
0
 20
0
 30
0
 70
128
  0
VERTEX
  8
LAYER_1
 10
170.5315
 20
138.1986
  0
VERTEX
  8
LAYER_1
 10
180.625
 20
137.8052
  0
SEQEND
  0
POLYLINE
  8
LAYER_1
 40
0.1411
 41
0.1411
 66
1
 10
0
 20
0
 30
0
  0
VERTEX
  8
LAYER_1
 10
180.9984
 20
137.7914
  0
VERTEX
  8
LAYER_1
 10
181.3505
 20
137.7769
  0
SEQEND
  0
POLYLINE
  8
LAYER_1
 40
0.1411
 41
0.1411
 66
1
 10
0
 20
0
 30
0
  0
VERTEX
  8
LAYER_1
 10
188.5949
 20
137.7769
  0
VERTEX
  8
LAYER_1
 10
188.9483
 20
137.7942
  0
SEQEND
  0
POLYLINE
  8
LAYER_1
  6
AIGENLINE064
 40
0.1411
 41
0.1411
 66
1
 10
0
 20
0
 30
0
 70
128
  0
VERTEX
  8
LAYER_1
 10
189.6704
 20
137.8272
  0
VERTEX
  8
LAYER_1
 10
197.9848
 20
138.209
  0
SEQEND
  0
POLYLINE
  8
LAYER_1
 40
0.1411
 41
0.1411
 66
1
 10
0
 20
0
 30
0
  0
VERTEX
  8
LAYER_1
 10
198.3472
 20
138.2255
  0
VERTEX
  8
LAYER_1
 10
198.6993
 20
138.2427
  0
SEQEND
  0
POLYLINE
  8
LAYER_1
  6
AIGENLINE039
 40
0.1411
 41
0.1411
 66
1
 10
0
 20
0
 30
0
 70
128
  0
VERTEX
  8
LAYER_1
 10
198.6993
 20
138.2427
 42
0.3436939966
  0
VERTEX
  8
LAYER_1
 10
199.1582
 20
138.6768
  0
SEQEND
  0
POLYLINE
  8
LAYER_1
 40
0.1411
 41
0.1411
 66
1
 10
0
 20
0
 30
0
  0
VERTEX
  8
LAYER_1
 10
199.1582
 20
138.6768
  0
VERTEX
  8
LAYER_1
 10
199.2044
 20
139.0275
  0
SEQEND
  0
POLYLINE
  8
LAYER_1
  6
AIGENLINE038
 40
0.1411
 41
0.1411
 66
1
 10
0
 20
0
 30
0
 70
128
  0
VERTEX
  8
LAYER_1
 10
199.2981
 20
139.7591
  0
VERTEX
  8
LAYER_1
 10
200.7588
 20
151.1195
  0
SEQEND
  0
POLYLINE
  8
LAYER_1
 40
0.1411
 41
0.1411
 66
1
 10
0
 20
0
 30
0
  0
VERTEX
  8
LAYER_1
 10
200.8057
 20
151.486
  0
VERTEX
  8
LAYER_1
 10
200.8511
 20
151.8353
  0
SEQEND
  0
POLYLINE
  8
LAYER_1
 40
0.1411
 41
0.1411
 66
1
 10
0
 20
0
 30
0
  0
VERTEX
  8
LAYER_1
 10
201.3472
 20
152.2715
 42
0.1761865906
  0
VERTEX
  8
LAYER_1
 10
201.0213
 20
152.1523
  0
SEQEND
  0
POLYLINE
  8
LAYER_1
 40
0.1411
 41
0.1411
 66
1
 10
0
 20
0
 30
0
  0
VERTEX
  8
LAYER_1
 10
201.011
 20
152.142
 42
0.1810513411
  0
VERTEX
  8
LAYER_1
 10
200.8511
 20
151.8353
  0
SEQEND
  0
POLYLINE
  8
LAYER_1
 40
0.1411
 41
0.1411
 66
1
 10
0
 20
0
 30
0
  0
VERTEX
  8
LAYER_1
 10
166.784
 20
152.2715
  0
VERTEX
  8
LAYER_1
 10
166.4312
 20
152.2715
  0
SEQEND
  0
POLYLINE
  8
LAYER_1
  6
AIGENLINE037
 40
0.1411
 41
0.1411
 66
1
 10
0
 20
0
 30
0
 70
128
  0
VERTEX
  8
LAYER_1
 10
165.7656
 20
152.2715
  0
VERTEX
  8
LAYER_1
 10
162.1083
 20
152.2715
  0
SEQEND
  0
POLYLINE
  8
LAYER_1
 40
0.1411
 41
0.1411
 66
1
 10
0
 20
0
 30
0
  0
VERTEX
  8
LAYER_1
 10
161.7762
 20
152.2715
  0
VERTEX
  8
LAYER_1
 10
161.4234
 20
152.2715
  0
SEQEND
  0
POLYLINE
  8
LAYER_1
  6
AIGENLINE036
 40
0.1411
 41
0.1411
 66
1
 10
0
 20
0
 30
0
 70
128
  0
VERTEX
  8
LAYER_1
 10
161.4234
 20
152.2715
 42
0.3925182533
  0
VERTEX
  8
LAYER_1
 10
161.2229
 20
152.0717
  0
SEQEND
  0
POLYLINE
  8
LAYER_1
  6
AIGENLINE009
 40
0.1411
 41
0.1411
 66
1
 10
0
 20
0
 30
0
 70
128
  0
VERTEX
  8
LAYER_1
 10
161.2229
 20
152.0724
  0
VERTEX
  8
LAYER_1
 10
161.2229
 20
151.3723
  0
SEQEND
  0
POLYLINE
  8
LAYER_1
  6
AIGENLINE036
 40
0.1411
 41
0.1411
 66
1
 10
0
 20
0
 30
0
 70
128
  0
VERTEX
  8
LAYER_1
 10
161.2229
 20
151.3723
 42
0.4141812563
  0
VERTEX
  8
LAYER_1
 10
161.4234
 20
151.1718
  0
SEQEND
  0
POLYLINE
  8
LAYER_1
 40
0.1411
 41
0.1411
 66
1
 10
0
 20
0
 30
0
  0
VERTEX
  8
LAYER_1
 10
161.4234
 20
151.1718
  0
VERTEX
  8
LAYER_1
 10
161.7762
 20
151.1718
  0
SEQEND
  0
POLYLINE
  8
LAYER_1
  6
AIGENLINE035
 40
0.1411
 41
0.1411
 66
1
 10
0
 20
0
 30
0
 70
128
  0
VERTEX
  8
LAYER_1
 10
162.4921
 20
151.1718
  0
VERTEX
  8
LAYER_1
 10
165.0022
 20
151.1718
  0
SEQEND
  0
POLYLINE
  8
LAYER_1
 40
0.1411
 41
0.1411
 66
1
 10
0
 20
0
 30
0
  0
VERTEX
  8
LAYER_1
 10
165.3591
 20
151.1718
  0
VERTEX
  8
LAYER_1
 10
165.7125
 20
151.1718
  0
SEQEND
  0
POLYLINE
  8
LAYER_1
 40
0.1411
 41
0.1411
 66
1
 10
0
 20
0
 30
0
  0
VERTEX
  8
LAYER_1
 10
166.2086
 20
150.7329
 42
0.1764350356
  0
VERTEX
  8
LAYER_1
 10
166.0502
 20
151.0402
  0
SEQEND
  0
POLYLINE
  8
LAYER_1
 40
0.1411
 41
0.1411
 66
1
 10
0
 20
0
 30
0
  0
VERTEX
  8
LAYER_1
 10
166.0371
 20
151.0519
 42
0.1778154294
  0
VERTEX
  8
LAYER_1
 10
165.7125
 20
151.1718
  0
SEQEND
  0
POLYLINE
  8
LAYER_1
 40
0.1411
 41
0.1411
 66
1
 10
0
 20
0
 30
0
  0
VERTEX
  8
LAYER_1
 10
166.2086
 20
150.7329
  0
VERTEX
  8
LAYER_1
 10
166.2514
 20
150.3829
  0
SEQEND
  0
POLYLINE
  8
LAYER_1
  6
AIGENLINE034
 40
0.1411
 41
0.1411
 66
1
 10
0
 20
0
 30
0
 70
128
  0
VERTEX
  8
LAYER_1
 10
166.3347
 20
149.7049
  0
VERTEX
  8
LAYER_1
 10
168.1179
 20
135.1366
  0
SEQEND
  0
POLYLINE
  8
LAYER_1
 40
0.1411
 41
0.1411
 66
1
 10
0
 20
0
 30
0
  0
VERTEX
  8
LAYER_1
 10
168.1592
 20
134.7983
  0
VERTEX
  8
LAYER_1
 10
168.2027
 20
134.4469
  0
SEQEND
  0
POLYLINE
  8
LAYER_1
  6
AIGENLINE033
 40
0.1411
 41
0.1411
 66
1
 10
0
 20
0
 30
0
 70
128
  0
VERTEX
  8
LAYER_1
 10
168.2027
 20
134.4469
 42
0.3636961546
  0
VERTEX
  8
LAYER_1
 10
168.4011
 20
134.2712
  0
SEQEND
  0
POLYLINE
  8
LAYER_1
 40
0.1411
 41
0.1411
 66
1
 10
0
 20
0
 30
0
  0
VERTEX
  8
LAYER_1
 10
168.4011
 20
134.2712
  0
VERTEX
  8
LAYER_1
 10
168.7539
 20
134.2712
  0
SEQEND
  0
POLYLINE
  8
LAYER_1
 40
0.1411
 41
0.1411
 66
1
 10
0
 20
0
 30
0
  0
VERTEX
  8
LAYER_1
 10
168.8703
 20
134.2712
  0
VERTEX
  8
LAYER_1
 10
169.2231
 20
134.2712
  0
SEQEND
  0
POLYLINE
  8
LAYER_1
 40
0.1411
 41
0.1411
 66
1
 10
0
 20
0
 30
0
  0
VERTEX
  8
LAYER_1
 10
171.7242
 20
134.2712
 42
0.03694735143
  0
VERTEX
  8
LAYER_1
 10
171.4004
 20
134.4125
  0
SEQEND
  0
POLYLINE
  8
LAYER_1
  6
AIGENLINE032
 40
0.1411
 41
0.1411
 66
1
 10
0
 20
0
 30
0
 70
128
  0
VERTEX
  8
LAYER_1
 10
170.7879
 20
134.5565
 42
0.08628476421
  0
VERTEX
  8
LAYER_1
 10
169.8487
 20
134.502
  0
SEQEND
  0
POLYLINE
  8
LAYER_1
 40
0.1411
 41
0.1411
 66
1
 10
0
 20
0
 30
0
  0
VERTEX
  8
LAYER_1
 10
169.5462
 20
134.4125
 42
0.02987645176
  0
VERTEX
  8
LAYER_1
 10
169.2231
 20
134.2712
  0
SEQEND
  0
POLYLINE
  8
LAYER_1
  6
AIGENLINE041
 40
0.1411
 41
0.1411
 66
1
 10
0
 20
0
 30
0
 70
128
  0
VERTEX
  8
LAYER_1
 10
198.7972
 20
135.3916
 42
0.3943926382
  0
VERTEX
  8
LAYER_1
 10
199.0487
 20
135.5204
  0
VERTEX
  8
LAYER_1
 10
199.0569
 20
135.5576
  0
SEQEND
  0
POLYLINE
  8
LAYER_1
 40
0.1411
 41
0.1411
 66
1
 10
0
 20
0
 30
0
  0
VERTEX
  8
LAYER_1
 10
199.0569
 20
135.5576
  0
VERTEX
  8
LAYER_1
 10
199.099
 20
135.9083
  0
SEQEND
  0
POLYLINE
  8
LAYER_1
 40
0.1411
 41
0.1411
 66
1
 10
0
 20
0
 30
0
  0
VERTEX
  8
LAYER_1
 10
199.1954
 20
136.6897
  0
VERTEX
  8
LAYER_1
 10
199.2381
 20
137.0397
  0
SEQEND
  0
POLYLINE
  8
LAYER_1
  6
AIGENLINE046
 40
0.1411
 41
0.1411
 66
1
 10
0
 20
0
 30
0
 70
128
  0
VERTEX
  8
LAYER_1
 10
199.2381
 20
137.0397
 42
0.3920345711
  0
VERTEX
  8
LAYER_1
 10
199.0645
 20
137.2623
  0
VERTEX
  8
LAYER_1
 10
199.0245
 20
137.2636
  0
SEQEND
  0
POLYLINE
  8
LAYER_1
 40
0.1411
 41
0.1411
 66
1
 10
0
 20
0
 30
0
  0
VERTEX
  8
LAYER_1
 10
199.0245
 20
137.2623
  0
VERTEX
  8
LAYER_1
 10
198.6731
 20
137.2368
  0
SEQEND
  0
POLYLINE
  8
LAYER_1
  6
AIGENLINE065
 40
0.1411
 41
0.1411
 66
1
 10
0
 20
0
 30
0
 70
128
  0
VERTEX
  8
LAYER_1
 10
197.8043
 20
137.1741
  0
VERTEX
  8
LAYER_1
 10
196.4993
 20
137.0783
  0
SEQEND
  0
POLYLINE
  8
LAYER_1
 40
0.1411
 41
0.1411
 66
1
 10
0
 20
0
 30
0
  0
VERTEX
  8
LAYER_1
 10
196.0652
 20
137.0466
  0
VERTEX
  8
LAYER_1
 10
195.7138
 20
137.0204
  0
SEQEND
  0
POLYLINE
  8
LAYER_1
  6
AIGENLINE044
 40
0.1411
 41
0.1411
 66
1
 10
0
 20
0
 30
0
 70
128
  0
VERTEX
  8
LAYER_1
 10
195.7138
 20
137.0204
 42
0.3929782451
  0
VERTEX
  8
LAYER_1
 10
195.5285
 20
136.8068
  0
VERTEX
  8
LAYER_1
 10
195.5416
 20
136.7503
  0
SEQEND
  0
POLYLINE
  8
LAYER_1
 40
0.1411
 41
0.1411
 66
1
 10
0
 20
0
 30
0
  0
VERTEX
  8
LAYER_1
 10
195.5416
 20
136.751
  0
VERTEX
  8
LAYER_1
 10
195.6649
 20
136.4203
  0
SEQEND
  0
POLYLINE
  8
LAYER_1
 40
0.1411
 41
0.1411
 66
1
 10
0
 20
0
 30
0
  0
VERTEX
  8
LAYER_1
 10
195.9143
 20
135.7609
  0
VERTEX
  8
LAYER_1
 10
196.039
 20
135.4301
  0
SEQEND
  0
POLYLINE
  8
LAYER_1
  6
AIGENLINE036
 40
0.1411
 41
0.1411
 66
1
 10
0
 20
0
 30
0
 70
128
  0
VERTEX
  8
LAYER_1
 10
196.039
 20
135.4301
 42
0.4141120504
  0
VERTEX
  8
LAYER_1
 10
196.296
 20
135.313
  0
SEQEND
  0
POLYLINE
  8
LAYER_1
 40
0.1411
 41
0.1411
 66
1
 10
0
 20
0
 30
0
  0
VERTEX
  8
LAYER_1
 10
198.7972
 20
135.3916
  0
VERTEX
  8
LAYER_1
 10
198.4568
 20
135.4853
  0
SEQEND
  0
POLYLINE
  8
LAYER_1
  6
AIGENLINE045
 40
0.1411
 41
0.1411
 66
1
 10
0
 20
0
 30
0
 70
128
  0
VERTEX
  8
LAYER_1
 10
197.8484
 20
135.5686
 42
0.06330523763
  0
VERTEX
  8
LAYER_1
 10
196.9334
 20
135.5039
  0
SEQEND
  0
POLYLINE
  8
LAYER_1
 40
0.1411
 41
0.1411
 66
1
 10
0
 20
0
 30
0
  0
VERTEX
  8
LAYER_1
 10
196.6323
 20
135.4288
  0
VERTEX
  8
LAYER_1
 10
196.2974
 20
135.3144
  0
SEQEND
  0
POLYLINE
  8
LAYER_1
  6
AIGENLINE041
 40
0.1411
 41
0.1411
 66
1
 10
0
 20
0
 30
0
 70
128
  0
VERTEX
  8
LAYER_1
 10
169.0736
 20
135.5576
 42
0.3919742809
  0
VERTEX
  8
LAYER_1
 10
169.2954
 20
135.3833
  0
VERTEX
  8
LAYER_1
 10
169.3326
 20
135.3916
  0
SEQEND
  0
POLYLINE
  8
LAYER_1
 40
0.1411
 41
0.1411
 66
1
 10
0
 20
0
 30
0
  0
VERTEX
  8
LAYER_1
 10
169.0736
 20
135.5576
  0
VERTEX
  8
LAYER_1
 10
169.0302
 20
135.9083
  0
SEQEND
  0
POLYLINE
  8
LAYER_1
 40
0.1411
 41
0.1411
 66
1
 10
0
 20
0
 30
0
  0
VERTEX
  8
LAYER_1
 10
168.9351
 20
136.6897
  0
VERTEX
  8
LAYER_1
 10
168.8924
 20
137.0397
  0
SEQEND
  0
POLYLINE
  8
LAYER_1
  6
AIGENLINE046
 40
0.1411
 41
0.1411
 66
1
 10
0
 20
0
 30
0
 70
128
  0
VERTEX
  8
LAYER_1
 10
169.1053
 20
137.2623
 42
0.4175976518
  0
VERTEX
  8
LAYER_1
 10
168.8917
 20
137.0783
  0
VERTEX
  8
LAYER_1
 10
168.8924
 20
137.0397
  0
SEQEND
  0
POLYLINE
  8
LAYER_1
 40
0.1411
 41
0.1411
 66
1
 10
0
 20
0
 30
0
  0
VERTEX
  8
LAYER_1
 10
169.1053
 20
137.2623
  0
VERTEX
  8
LAYER_1
 10
169.4574
 20
137.2368
  0
SEQEND
  0
POLYLINE
  8
LAYER_1
  6
AIGENLINE043
 40
0.1411
 41
0.1411
 66
1
 10
0
 20
0
 30
0
 70
128
  0
VERTEX
  8
LAYER_1
 10
170.3269
 20
137.1741
  0
VERTEX
  8
LAYER_1
 10
171.6298
 20
137.0783
  0
SEQEND
  0
POLYLINE
  8
LAYER_1
 40
0.1411
 41
0.1411
 66
1
 10
0
 20
0
 30
0
  0
VERTEX
  8
LAYER_1
 10
172.0646
 20
137.0466
  0
VERTEX
  8
LAYER_1
 10
172.4167
 20
137.0204
  0
SEQEND
  0
POLYLINE
  8
LAYER_1
  6
AIGENLINE044
 40
0.1411
 41
0.1411
 66
1
 10
0
 20
0
 30
0
 70
128
  0
VERTEX
  8
LAYER_1
 10
172.5889
 20
136.751
 42
0.3945659897
  0
VERTEX
  8
LAYER_1
 10
172.4725
 20
137.0087
  0
VERTEX
  8
LAYER_1
 10
172.4167
 20
137.0204
  0
SEQEND
  0
POLYLINE
  8
LAYER_1
 40
0.1411
 41
0.1411
 66
1
 10
0
 20
0
 30
0
  0
VERTEX
  8
LAYER_1
 10
172.5889
 20
136.751
  0
VERTEX
  8
LAYER_1
 10
172.4649
 20
136.4203
  0
SEQEND
  0
POLYLINE
  8
LAYER_1
 40
0.1411
 41
0.1411
 66
1
 10
0
 20
0
 30
0
  0
VERTEX
  8
LAYER_1
 10
172.2162
 20
135.7609
  0
VERTEX
  8
LAYER_1
 10
172.0922
 20
135.4301
  0
SEQEND
  0
POLYLINE
  8
LAYER_1
  6
AIGENLINE036
 40
0.1411
 41
0.1411
 66
1
 10
0
 20
0
 30
0
 70
128
  0
VERTEX
  8
LAYER_1
 10
171.8324
 20
135.3144
 42
0.395206467
  0
VERTEX
  8
LAYER_1
 10
172.0901
 20
135.4288
  0
SEQEND
  0
POLYLINE
  8
LAYER_1
 40
0.1411
 41
0.1411
 66
1
 10
0
 20
0
 30
0
  0
VERTEX
  8
LAYER_1
 10
171.8324
 20
135.3144
  0
VERTEX
  8
LAYER_1
 10
171.4982
 20
135.4288
  0
SEQEND
  0
POLYLINE
  8
LAYER_1
  6
AIGENLINE045
 40
0.1411
 41
0.1411
 66
1
 10
0
 20
0
 30
0
 70
128
  0
VERTEX
  8
LAYER_1
 10
170.8974
 20
135.5493
 42
0.0647017625
  0
VERTEX
  8
LAYER_1
 10
169.9789
 20
135.5404
  0
SEQEND
  0
POLYLINE
  8
LAYER_1
 40
0.1411
 41
0.1411
 66
1
 10
0
 20
0
 30
0
  0
VERTEX
  8
LAYER_1
 10
169.6737
 20
135.4853
  0
VERTEX
  8
LAYER_1
 10
169.3326
 20
135.3916
  0
SEQEND
  0
POLYLINE
  8
LAYER_1
 40
0.1411
 41
0.1411
 66
1
 10
0
 20
0
 30
0
  0
VERTEX
  8
LAYER_1
 10
211.0748
 20
150.5627
  0
VERTEX
  8
LAYER_1
 10
211.0748
 20
150.9162
  0
VERTEX
  8
LAYER_1
 10
210.7213
 20
150.9162
  0
SEQEND
  0
POLYLINE
  8
LAYER_1
  6
AIGENLINE054
 40
0.1411
 41
0.1411
 66
1
 10
0
 20
0
 30
0
 70
128
  0
VERTEX
  8
LAYER_1
 10
210.0619
 20
150.9155
  0
VERTEX
  8
LAYER_1
 10
207.7565
 20
150.9155
  0
SEQEND
  0
POLYLINE
  8
LAYER_1
 40
0.1411
 41
0.1411
 66
1
 10
0
 20
0
 30
0
  0
VERTEX
  8
LAYER_1
 10
207.4271
 20
150.9155
  0
VERTEX
  8
LAYER_1
 10
207.0744
 20
150.9155
  0
VERTEX
  8
LAYER_1
 10
207.0744
 20
150.5627
  0
SEQEND
  0
POLYLINE
  8
LAYER_1
 40
0.1411
 41
0.1411
 66
1
 10
0
 20
0
 30
0
  0
VERTEX
  8
LAYER_1
 10
207.0744
 20
150.2685
  0
VERTEX
  8
LAYER_1
 10
207.0744
 20
149.9151
  0
VERTEX
  8
LAYER_1
 10
207.4271
 20
149.9151
  0
SEQEND
  0
POLYLINE
  8
LAYER_1
  6
AIGENLINE054
 40
0.1411
 41
0.1411
 66
1
 10
0
 20
0
 30
0
 70
128
  0
VERTEX
  8
LAYER_1
 10
208.0858
 20
149.9151
  0
VERTEX
  8
LAYER_1
 10
210.392
 20
149.9151
  0
SEQEND
  0
POLYLINE
  8
LAYER_1
 40
0.1411
 41
0.1411
 66
1
 10
0
 20
0
 30
0
  0
VERTEX
  8
LAYER_1
 10
210.7213
 20
149.9151
  0
VERTEX
  8
LAYER_1
 10
211.0748
 20
149.9151
  0
VERTEX
  8
LAYER_1
 10
211.0748
 20
150.2685
  0
SEQEND
  0
POLYLINE
  8
LAYER_1
 40
0.1411
 41
0.1411
 66
1
 10
0
 20
0
 30
0
  0
VERTEX
  8
LAYER_1
 10
161.3745
 20
150.5627
  0
VERTEX
  8
LAYER_1
 10
161.3745
 20
150.9162
  0
VERTEX
  8
LAYER_1
 10
161.7266
 20
150.9162
  0
SEQEND
  0
POLYLINE
  8
LAYER_1
  6
AIGENLINE054
 40
0.1411
 41
0.1411
 66
1
 10
0
 20
0
 30
0
 70
128
  0
VERTEX
  8
LAYER_1
 10
162.3853
 20
150.9155
  0
VERTEX
  8
LAYER_1
 10
164.6921
 20
150.9155
  0
SEQEND
  0
POLYLINE
  8
LAYER_1
 40
0.1411
 41
0.1411
 66
1
 10
0
 20
0
 30
0
  0
VERTEX
  8
LAYER_1
 10
165.0221
 20
150.9155
  0
VERTEX
  8
LAYER_1
 10
165.3735
 20
150.9155
  0
VERTEX
  8
LAYER_1
 10
165.3735
 20
150.5627
  0
SEQEND
  0
POLYLINE
  8
LAYER_1
 40
0.1411
 41
0.1411
 66
1
 10
0
 20
0
 30
0
  0
VERTEX
  8
LAYER_1
 10
165.3735
 20
150.2685
  0
VERTEX
  8
LAYER_1
 10
165.3735
 20
149.9151
  0
VERTEX
  8
LAYER_1
 10
165.0221
 20
149.9151
  0
SEQEND
  0
POLYLINE
  8
LAYER_1
  6
AIGENLINE054
 40
0.1411
 41
0.1411
 66
1
 10
0
 20
0
 30
0
 70
128
  0
VERTEX
  8
LAYER_1
 10
164.3621
 20
149.9151
  0
VERTEX
  8
LAYER_1
 10
162.0566
 20
149.9151
  0
SEQEND
  0
POLYLINE
  8
LAYER_1
 40
0.1411
 41
0.1411
 66
1
 10
0
 20
0
 30
0
  0
VERTEX
  8
LAYER_1
 10
161.7266
 20
149.9151
  0
VERTEX
  8
LAYER_1
 10
161.3745
 20
149.9151
  0
VERTEX
  8
LAYER_1
 10
161.3745
 20
150.2685
  0
SEQEND
  0
POLYLINE
  8
LAYER_1
 40
0.1411
 41
0.1411
 66
1
 10
0
 20
0
 30
0
  0
VERTEX
  8
LAYER_1
 10
169.1053
 20
138.3778
  0
VERTEX
  8
LAYER_1
 10
169.4587
 20
138.3778
  0
SEQEND
  0
POLYLINE
  8
LAYER_1
  6
AIGENLINE066
 40
0.1411
 41
0.1411
 66
1
 10
0
 20
0
 30
0
 70
128
  0
VERTEX
  8
LAYER_1
 10
170.1712
 20
138.3778
  0
VERTEX
  8
LAYER_1
 10
198.3155
 20
138.3778
  0
SEQEND
  0
POLYLINE
  8
LAYER_1
 40
0.1411
 41
0.1411
 66
1
 10
0
 20
0
 30
0
  0
VERTEX
  8
LAYER_1
 10
198.6718
 20
138.3778
  0
VERTEX
  8
LAYER_1
 10
199.0245
 20
138.3778
  0
SEQEND
  0
POLYLINE
  8
LAYER_1
 40
0.1411
 41
0.1411
 66
1
 10
0
 20
0
 30
0
  0
VERTEX
  8
LAYER_1
 10
195.545
 20
134.2712
  0
VERTEX
  8
LAYER_1
 10
195.8978
 20
134.2712
  0
SEQEND
  0
POLYLINE
  8
LAYER_1
 40
0.1411
 41
0.1411
 66
1
 10
0
 20
0
 30
0
  0
VERTEX
  8
LAYER_1
 10
196.0535
 20
134.2712
  0
VERTEX
  8
LAYER_1
 10
196.407
 20
134.2712
  0
SEQEND
  0
POLYLINE
  8
LAYER_1
 40
0.1411
 41
0.1411
 66
1
 10
0
 20
0
 30
0
  0
VERTEX
  8
LAYER_1
 10
186.2239
 20
97.7704
  0
VERTEX
  8
LAYER_1
 10
185.8712
 20
97.7704
  0
SEQEND
  0
POLYLINE
  8
LAYER_1
  6
AIGENLINE034
 40
0.1411
 41
0.1411
 66
1
 10
0
 20
0
 30
0
 70
128
  0
VERTEX
  8
LAYER_1
 10
185.189
 20
97.7704
  0
VERTEX
  8
LAYER_1
 10
166.4181
 20
97.7704
  0
SEQEND
  0
POLYLINE
  8
LAYER_1
 40
0.1411
 41
0.1411
 66
1
 10
0
 20
0
 30
0
  0
VERTEX
  8
LAYER_1
 10
166.0763
 20
97.7704
  0
VERTEX
  8
LAYER_1
 10
165.7236
 20
97.7704
  0
VERTEX
  8
LAYER_1
 10
165.7236
 20
97.9709
 42
0.1315431508
  0
VERTEX
  8
LAYER_1
 10
165.6857
 20
98.1177
  0
SEQEND
  0
POLYLINE
  8
LAYER_1
  6
AIGENLINE067
 40
0.1411
 41
0.1411
 66
1
 10
0
 20
0
 30
0
 70
128
  0
VERTEX
  8
LAYER_1
 10
165.029
 20
98.2707
  0
VERTEX
  8
LAYER_1
 10
164.0238
 20
98.2707
 42
-0.3935668293
  0
VERTEX
  8
LAYER_1
 10
163.724
 20
98.5711
  0
VERTEX
  8
LAYER_1
 10
163.724
 20
98.9707
 42
-0.3922121218
  0
VERTEX
  8
LAYER_1
 10
164.0238
 20
99.2711
  0
VERTEX
  8
LAYER_1
 10
185.5136
 20
99.2711
  0
SEQEND
  0
POLYLINE
  8
LAYER_1
 40
0.1411
 41
0.1411
 66
1
 10
0
 20
0
 30
0
  0
VERTEX
  8
LAYER_1
 10
185.8712
 20
99.2711
  0
VERTEX
  8
LAYER_1
 10
186.2239
 20
99.2711
  0
SEQEND
  0
POLYLINE
  8
LAYER_1
 40
0.1411
 41
0.1411
 66
1
 10
0
 20
0
 30
0
  0
VERTEX
  8
LAYER_1
 10
165.7236
 20
97.7704
  0
VERTEX
  8
LAYER_1
 10
166.0757
 20
97.7704
  0
SEQEND
  0
POLYLINE
  8
LAYER_1
  6
AIGENLINE034
 40
0.1411
 41
0.1411
 66
1
 10
0
 20
0
 30
0
 70
128
  0
VERTEX
  8
LAYER_1
 10
166.7592
 20
97.7704
  0
VERTEX
  8
LAYER_1
 10
185.5301
 20
97.7704
  0
SEQEND
  0
POLYLINE
  8
LAYER_1
 40
0.1411
 41
0.1411
 66
1
 10
0
 20
0
 30
0
  0
VERTEX
  8
LAYER_1
 10
185.8712
 20
97.7704
  0
VERTEX
  8
LAYER_1
 10
186.2239
 20
97.7704
  0
VERTEX
  8
LAYER_1
 10
186.5767
 20
97.7704
  0
SEQEND
  0
POLYLINE
  8
LAYER_1
  6
AIGENLINE034
 40
0.1411
 41
0.1411
 66
1
 10
0
 20
0
 30
0
 70
128
  0
VERTEX
  8
LAYER_1
 10
187.2595
 20
97.7704
  0
VERTEX
  8
LAYER_1
 10
206.0312
 20
97.7704
  0
SEQEND
  0
POLYLINE
  8
LAYER_1
 40
0.1411
 41
0.1411
 66
1
 10
0
 20
0
 30
0
  0
VERTEX
  8
LAYER_1
 10
206.3722
 20
97.7704
  0
VERTEX
  8
LAYER_1
 10
206.725
 20
97.7704
  0
VERTEX
  8
LAYER_1
 10
206.725
 20
97.9709
 42
-0.1269122772
  0
VERTEX
  8
LAYER_1
 10
206.7629
 20
98.1177
  0
SEQEND
  0
POLYLINE
  8
LAYER_1
  6
AIGENLINE067
 40
0.1411
 41
0.1411
 66
1
 10
0
 20
0
 30
0
 70
128
  0
VERTEX
  8
LAYER_1
 10
207.4182
 20
98.2707
  0
VERTEX
  8
LAYER_1
 10
208.4241
 20
98.2707
 42
0.3935668291
  0
VERTEX
  8
LAYER_1
 10
208.7239
 20
98.5711
  0
VERTEX
  8
LAYER_1
 10
208.7239
 20
98.9707
 42
0.3922121216
  0
VERTEX
  8
LAYER_1
 10
208.4241
 20
99.2711
  0
VERTEX
  8
LAYER_1
 10
186.9343
 20
99.2711
  0
SEQEND
  0
POLYLINE
  8
LAYER_1
 40
0.1411
 41
0.1411
 66
1
 10
0
 20
0
 30
0
  0
VERTEX
  8
LAYER_1
 10
186.5767
 20
99.2711
  0
VERTEX
  8
LAYER_1
 10
186.2239
 20
99.2711
  0
SEQEND
  0
POLYLINE
  8
LAYER_1
 40
0.1411
 41
0.1411
 66
1
 10
0
 20
0
 30
0
  0
VERTEX
  8
LAYER_1
 10
186.7242
 20
98.2169
  0
VERTEX
  8
LAYER_1
 10
186.7242
 20
98.5711
  0
VERTEX
  8
LAYER_1
 10
186.3714
 20
98.5711
  0
SEQEND
  0
POLYLINE
  8
LAYER_1
 40
0.1411
 41
0.1411
 66
1
 10
0
 20
0
 30
0
  0
VERTEX
  8
LAYER_1
 10
186.0779
 20
98.5711
  0
VERTEX
  8
LAYER_1
 10
185.723
 20
98.5711
  0
VERTEX
  8
LAYER_1
 10
185.723
 20
98.2169
  0
SEQEND
  0
POLYLINE
  8
LAYER_1
 40
0.1411
 41
0.1411
 66
1
 10
0
 20
0
 30
0
  0
VERTEX
  8
LAYER_1
 10
185.723
 20
98.1225
  0
VERTEX
  8
LAYER_1
 10
185.723
 20
97.7704
  0
VERTEX
  8
LAYER_1
 10
186.0779
 20
97.7704
  0
SEQEND
  0
POLYLINE
  8
LAYER_1
 40
0.1411
 41
0.1411
 66
1
 10
0
 20
0
 30
0
  0
VERTEX
  8
LAYER_1
 10
186.3714
 20
97.7704
  0
VERTEX
  8
LAYER_1
 10
186.7242
 20
97.7704
  0
VERTEX
  8
LAYER_1
 10
186.7242
 20
98.1225
  0
SEQEND
  0
POLYLINE
  8
LAYER_1
  6
AIGENLINE010
 40
0.1411
 41
0.1411
 66
1
 10
0
 20
0
 30
0
 70
128
  0
VERTEX
  8
LAYER_1
 10
186.5698
 20
97.3357
  0
VERTEX
  8
LAYER_1
 10
186.5698
 20
97.5713
  0
SEQEND
  0
POLYLINE
  8
LAYER_1
  6
AIGENLINE011
 40
0.1411
 41
0.1411
 66
1
 10
0
 20
0
 30
0
 70
128
  0
VERTEX
  8
LAYER_1
 10
186.3962
 20
97.3357
 42
0.388422052
  0
VERTEX
  8
LAYER_1
 10
186.5437
 20
97.3095
  0
VERTEX
  8
LAYER_1
 10
186.5685
 20
97.3357
  0
SEQEND
  0
POLYLINE
  8
LAYER_1
  6
AIGENLINE012
 40
0.1411
 41
0.1411
 66
1
 10
0
 20
0
 30
0
 70
128
  0
VERTEX
  8
LAYER_1
 10
186.4823
 20
97.2909
  0
VERTEX
  8
LAYER_1
 10
185.9649
 20
97.2909
  0
SEQEND
  0
POLYLINE
  8
LAYER_1
  6
AIGENLINE011
 40
0.1411
 41
0.1411
 66
1
 10
0
 20
0
 30
0
 70
128
  0
VERTEX
  8
LAYER_1
 10
185.8787
 20
97.3357
 42
0.392603723
  0
VERTEX
  8
LAYER_1
 10
186.0255
 20
97.3095
  0
VERTEX
  8
LAYER_1
 10
186.0517
 20
97.3357
  0
SEQEND
  0
INSERT
  8
LAYER_1
  2
AIGNBL0101002D
 10
0
 20
0
 30
0
  0
POLYLINE
  8
LAYER_1
  6
AIGENLINE013
 40
0.1411
 41
0.1411
 66
1
 10
0
 20
0
 30
0
 70
128
  0
VERTEX
  8
LAYER_1
 10
186.0517
 20
97.3357
 42
0.2580862199
  0
VERTEX
  8
LAYER_1
 10
186.3962
 20
97.3357
  0
SEQEND
  0
POLYLINE
  8
LAYER_1
  6
AIGENLINE010
 40
0.1411
 41
0.1411
 66
1
 10
0
 20
0
 30
0
 70
128
  0
VERTEX
  8
LAYER_1
 10
185.8787
 20
97.5713
  0
VERTEX
  8
LAYER_1
 10
185.8787
 20
97.3357
  0
SEQEND
  0
POLYLINE
  8
LAYER_1
  6
AIGENLINE016
 40
0.1411
 41
0.1411
 66
1
 10
0
 20
0
 30
0
 70
128
  0
VERTEX
  8
LAYER_1
 10
185.8836
 20
97.5713
  0
VERTEX
  8
LAYER_1
 10
185.8787
 20
97.5658
  0
SEQEND
  0
POLYLINE
  8
LAYER_1
  6
AIGENLINE015
 40
0.1411
 41
0.1411
 66
1
 10
0
 20
0
 30
0
 70
128
  0
VERTEX
  8
LAYER_1
 10
186.3652
 20
97.5713
  0
VERTEX
  8
LAYER_1
 10
186.0841
 20
97.5713
  0
SEQEND
  0
POLYLINE
  8
LAYER_1
  6
AIGENLINE014
 40
0.1411
 41
0.1411
 66
1
 10
0
 20
0
 30
0
 70
128
  0
VERTEX
  8
LAYER_1
 10
186.401
 20
97.5713
  0
VERTEX
  8
LAYER_1
 10
186.3962
 20
97.5658
  0
SEQEND
  0
INSERT
  8
LAYER_1
  2
AIGNBL0101002E
 10
0
 20
0
 30
0
  0
POLYLINE
  8
LAYER_1
  6
AIGENLINE014
 40
0.1411
 41
0.1411
 66
1
 10
0
 20
0
 30
0
 70
128
  0
VERTEX
  8
LAYER_1
 10
186.0517
 20
97.5658
  0
VERTEX
  8
LAYER_1
 10
186.0462
 20
97.5713
  0
SEQEND
  0
POLYLINE
  8
LAYER_1
  6
AIGENLINE068
 40
0.1411
 41
0.1411
 66
1
 10
0
 20
0
 30
0
 70
128
  0
VERTEX
  8
LAYER_1
 10
186.5698
 20
97.5713
  0
VERTEX
  8
LAYER_1
 10
185.8787
 20
97.5713
  0
SEQEND
  0
POLYLINE
  8
LAYER_1
  6
AIGENLINE016
 40
0.1411
 41
0.1411
 66
1
 10
0
 20
0
 30
0
 70
128
  0
VERTEX
  8
LAYER_1
 10
186.5698
 20
97.5658
  0
VERTEX
  8
LAYER_1
 10
186.5657
 20
97.5713
  0
SEQEND
  0
POLYLINE
  8
LAYER_1
 40
0.1411
 41
0.1411
 66
1
 10
0
 20
0
 30
0
  0
VERTEX
  8
LAYER_1
 10
186.4245
 20
97.5713
  0
VERTEX
  8
LAYER_1
 10
186.4245
 20
97.9234
  0
SEQEND
  0
POLYLINE
  8
LAYER_1
  6
AIGENLINE018
 40
0.1411
 41
0.1411
 66
1
 10
0
 20
0
 30
0
 70
128
  0
VERTEX
  8
LAYER_1
 10
186.4245
 20
98.4174
  0
VERTEX
  8
LAYER_1
 10
186.4245
 20
98.4395
  0
VERTEX
  8
LAYER_1
 10
186.3638
 20
98.5001
  0
VERTEX
  8
LAYER_1
 10
186.0848
 20
98.5001
  0
VERTEX
  8
LAYER_1
 10
186.0241
 20
98.4395
  0
VERTEX
  8
LAYER_1
 10
186.0241
 20
98.1708
  0
SEQEND
  0
POLYLINE
  8
LAYER_1
 40
0.1411
 41
0.1411
 66
1
 10
0
 20
0
 30
0
  0
VERTEX
  8
LAYER_1
 10
186.0241
 20
97.9234
  0
VERTEX
  8
LAYER_1
 10
186.0241
 20
97.5713
  0
SEQEND
  0
POLYLINE
  8
LAYER_1
 40
0.1411
 41
0.1411
 66
1
 10
0
 20
0
 30
0
  0
VERTEX
  8
LAYER_1
 10
186.3845
 20
97.5713
  0
VERTEX
  8
LAYER_1
 10
186.3845
 20
97.9234
  0
SEQEND
  0
POLYLINE
  8
LAYER_1
 40
0.1411
 41
0.1411
 66
1
 10
0
 20
0
 30
0
  0
VERTEX
  8
LAYER_1
 10
186.3845
 20
98.0874
  0
VERTEX
  8
LAYER_1
 10
186.3845
 20
98.4395
  0
SEQEND
  0
POLYLINE
  8
LAYER_1
 40
0.1411
 41
0.1411
 66
1
 10
0
 20
0
 30
0
  0
VERTEX
  8
LAYER_1
 10
186.0641
 20
97.5713
  0
VERTEX
  8
LAYER_1
 10
186.0641
 20
97.9234
  0
SEQEND
  0
POLYLINE
  8
LAYER_1
 40
0.1411
 41
0.1411
 66
1
 10
0
 20
0
 30
0
  0
VERTEX
  8
LAYER_1
 10
186.0641
 20
98.0874
  0
VERTEX
  8
LAYER_1
 10
186.0641
 20
98.4395
  0
SEQEND
  0
POLYLINE
  8
LAYER_1
  6
AIGENLINE019
 40
0.1411
 41
0.1411
 66
1
 10
0
 20
0
 30
0
 70
128
  0
VERTEX
  8
LAYER_1
 10
186.4245
 20
98.4395
  0
VERTEX
  8
LAYER_1
 10
186.0241
 20
98.4395
  0
SEQEND
  0
POLYLINE
  8
LAYER_1
 40
0.1411
 41
0.1411
 66
1
 10
0
 20
0
 30
0
  0
VERTEX
  8
LAYER_1
 10
181.3505
 20
137.7769
  0
VERTEX
  8
LAYER_1
 10
181.704
 20
137.7769
  0
SEQEND
  0
POLYLINE
  8
LAYER_1
  6
AIGENLINE047
 40
0.1411
 41
0.1411
 66
1
 10
0
 20
0
 30
0
 70
128
  0
VERTEX
  8
LAYER_1
 10
182.4309
 20
137.7769
  0
VERTEX
  8
LAYER_1
 10
187.879
 20
137.7769
  0
SEQEND
  0
POLYLINE
  8
LAYER_1
 40
0.1411
 41
0.1411
 66
1
 10
0
 20
0
 30
0
  0
VERTEX
  8
LAYER_1
 10
188.2428
 20
137.7769
  0
VERTEX
  8
LAYER_1
 10
188.5949
 20
137.7769
  0
SEQEND
  0
POLYLINE
  8
LAYER_1
 40
0.1411
 41
0.1411
 66
1
 10
0
 20
0
 30
0
  0
VERTEX
  8
LAYER_1
 10
182.6114
 20
136.6304
  0
VERTEX
  8
LAYER_1
 10
182.9649
 20
136.6304
  0
SEQEND
  0
POLYLINE
  8
LAYER_1
  6
AIGENLINE048
 40
0.1411
 41
0.1411
 66
1
 10
0
 20
0
 30
0
 70
128
  0
VERTEX
  8
LAYER_1
 10
183.7676
 20
136.6304
  0
VERTEX
  8
LAYER_1
 10
186.5802
 20
136.6304
  0
SEQEND
  0
POLYLINE
  8
LAYER_1
 40
0.1411
 41
0.1411
 66
1
 10
0
 20
0
 30
0
  0
VERTEX
  8
LAYER_1
 10
186.9819
 20
136.6304
  0
VERTEX
  8
LAYER_1
 10
187.3346
 20
136.6304
  0
SEQEND
  0
POLYLINE
  8
LAYER_1
 40
0.1411
 41
0.1411
 66
1
 10
0
 20
0
 30
0
  0
VERTEX
  8
LAYER_1
 10
182.6734
 20
135.2717
  0
VERTEX
  8
LAYER_1
 10
183.0248
 20
135.2717
  0
SEQEND
  0
POLYLINE
  8
LAYER_1
  6
AIGENLINE049
 40
0.1411
 41
0.1411
 66
1
 10
0
 20
0
 30
0
 70
128
  0
VERTEX
  8
LAYER_1
 10
183.8048
 20
135.2717
  0
VERTEX
  8
LAYER_1
 10
186.5312
 20
135.2717
  0
SEQEND
  0
POLYLINE
  8
LAYER_1
 40
0.1411
 41
0.1411
 66
1
 10
0
 20
0
 30
0
  0
VERTEX
  8
LAYER_1
 10
186.9199
 20
135.2717
  0
VERTEX
  8
LAYER_1
 10
187.2733
 20
135.2717
  0
SEQEND
  0
POLYLINE
  8
LAYER_1
 40
0.1411
 41
0.1411
 66
1
 10
0
 20
0
 30
0
  0
VERTEX
  8
LAYER_1
 10
169.2231
 20
134.2712
  0
VERTEX
  8
LAYER_1
 10
169.5759
 20
134.2712
  0
SEQEND
  0
POLYLINE
  8
LAYER_1
  6
AIGENLINE050
 40
0.1411
 41
0.1411
 66
1
 10
0
 20
0
 30
0
 70
128
  0
VERTEX
  8
LAYER_1
 10
170.1739
 20
134.2712
  0
VERTEX
  8
LAYER_1
 10
171.0731
 20
134.2712
  0
SEQEND
  0
POLYLINE
  8
LAYER_1
 40
0.1411
 41
0.1411
 66
1
 10
0
 20
0
 30
0
  0
VERTEX
  8
LAYER_1
 10
171.3708
 20
134.2712
  0
VERTEX
  8
LAYER_1
 10
171.7242
 20
134.2712
  0
SEQEND
  0
POLYLINE
  8
LAYER_1
 40
0.1411
 41
0.1411
 66
1
 10
0
 20
0
 30
0
  0
VERTEX
  8
LAYER_1
 10
170.473
 20
134.2712
  0
VERTEX
  8
LAYER_1
 10
170.8251
 20
134.2712
  0
SEQEND
  0
POLYLINE
  8
LAYER_1
  6
AIGENLINE069
 40
0.1411
 41
0.1411
 66
1
 10
0
 20
0
 30
0
 70
128
  0
VERTEX
  8
LAYER_1
 10
171.5292
 20
134.2712
  0
VERTEX
  8
LAYER_1
 10
197.9076
 20
134.2712
  0
SEQEND
  0
POLYLINE
  8
LAYER_1
 40
0.1411
 41
0.1411
 66
1
 10
0
 20
0
 30
0
  0
VERTEX
  8
LAYER_1
 10
198.2597
 20
134.2712
  0
VERTEX
  8
LAYER_1
 10
198.6111
 20
134.2712
  0
SEQEND
  0
POLYLINE
  8
LAYER_1
 40
0.1411
 41
0.1411
 66
1
 10
0
 20
0
 30
0
  0
VERTEX
  8
LAYER_1
 10
196.407
 20
134.2712
  0
VERTEX
  8
LAYER_1
 10
196.7597
 20
134.2712
  0
SEQEND
  0
POLYLINE
  8
LAYER_1
  6
AIGENLINE050
 40
0.1411
 41
0.1411
 66
1
 10
0
 20
0
 30
0
 70
128
  0
VERTEX
  8
LAYER_1
 10
197.3578
 20
134.2712
  0
VERTEX
  8
LAYER_1
 10
198.2549
 20
134.2712
  0
SEQEND
  0
POLYLINE
  8
LAYER_1
 40
0.1411
 41
0.1411
 66
1
 10
0
 20
0
 30
0
  0
VERTEX
  8
LAYER_1
 10
198.5546
 20
134.2712
  0
VERTEX
  8
LAYER_1
 10
198.906
 20
134.2712
  0
SEQEND
  0
POLYLINE
  8
LAYER_1
 40
0.1411
 41
0.1411
 66
1
 10
0
 20
0
 30
0
  0
VERTEX
  8
LAYER_1
 10
166.784
 20
152.2715
  0
VERTEX
  8
LAYER_1
 10
167.1361
 20
152.2715
  0
SEQEND
  0
POLYLINE
  8
LAYER_1
  6
AIGENLINE070
 40
0.1411
 41
0.1411
 66
1
 10
0
 20
0
 30
0
 70
128
  0
VERTEX
  8
LAYER_1
 10
167.8313
 20
152.2715
  0
VERTEX
  8
LAYER_1
 10
204.9646
 20
152.2715
  0
SEQEND
  0
POLYLINE
  8
LAYER_1
 40
0.1411
 41
0.1411
 66
1
 10
0
 20
0
 30
0
  0
VERTEX
  8
LAYER_1
 10
205.3118
 20
152.2715
  0
VERTEX
  8
LAYER_1
 10
205.6646
 20
152.2715
  0
SEQEND
  0
POLYLINE
  8
LAYER_1
 40
0.1411
 41
0.1411
 66
1
 10
0
 20
0
 30
0
  0
VERTEX
  8
LAYER_1
 10
186.7242
 20
97.4183
  0
VERTEX
  8
LAYER_1
 10
186.7242
 20
97.7704
  0
VERTEX
  8
LAYER_1
 10
186.3714
 20
97.7704
  0
SEQEND
  0
POLYLINE
  8
LAYER_1
 40
0.1411
 41
0.1411
 66
1
 10
0
 20
0
 30
0
  0
VERTEX
  8
LAYER_1
 10
186.0779
 20
97.7704
  0
VERTEX
  8
LAYER_1
 10
185.723
 20
97.7704
  0
VERTEX
  8
LAYER_1
 10
185.723
 20
97.4183
  0
SEQEND
  0
POLYLINE
  8
LAYER_1
  6
AIGENLINE004
 40
0.1411
 41
0.1411
 66
1
 10
0
 20
0
 30
0
 70
128
  0
VERTEX
  8
LAYER_1
 10
185.723
 20
96.6522
  0
VERTEX
  8
LAYER_1
 10
185.7244
 20
95.5056
  0
SEQEND
  0
POLYLINE
  8
LAYER_1
 40
0.1411
 41
0.1411
 66
1
 10
0
 20
0
 30
0
  0
VERTEX
  8
LAYER_1
 10
185.7244
 20
95.1232
  0
VERTEX
  8
LAYER_1
 10
185.7244
 20
94.7711
  0
VERTEX
  8
LAYER_1
 10
186.0779
 20
94.7711
  0
SEQEND
  0
POLYLINE
  8
LAYER_1
 40
0.1411
 41
0.1411
 66
1
 10
0
 20
0
 30
0
  0
VERTEX
  8
LAYER_1
 10
186.3714
 20
94.7711
  0
VERTEX
  8
LAYER_1
 10
186.7242
 20
94.7711
  0
VERTEX
  8
LAYER_1
 10
186.7242
 20
95.1232
  0
SEQEND
  0
POLYLINE
  8
LAYER_1
  6
AIGENLINE004
 40
0.1411
 41
0.1411
 66
1
 10
0
 20
0
 30
0
 70
128
  0
VERTEX
  8
LAYER_1
 10
186.7242
 20
95.888
  0
VERTEX
  8
LAYER_1
 10
186.7242
 20
97.0352
  0
SEQEND
  0
POLYLINE
  8
LAYER_1
 40
0.1411
 41
0.1411
 66
1
 10
0
 20
0
 30
0
  0
VERTEX
  8
LAYER_1
 10
183.8275
 20
97.5713
  0
VERTEX
  8
LAYER_1
 10
183.4741
 20
97.5713
  0
VERTEX
  8
LAYER_1
 10
183.4741
 20
97.7704
  0
VERTEX
  8
LAYER_1
 10
183.8275
 20
97.7704
  0
SEQEND
  0
POLYLINE
  8
LAYER_1
  6
AIGENLINE020
 40
0.1411
 41
0.1411
 66
1
 10
0
 20
0
 30
0
 70
128
  0
VERTEX
  8
LAYER_1
 10
184.511
 20
97.7704
  0
VERTEX
  8
LAYER_1
 10
188.2793
 20
97.7704
  0
SEQEND
  0
POLYLINE
  8
LAYER_1
 40
0.1411
 41
0.1411
 66
1
 10
0
 20
0
 30
0
  0
VERTEX
  8
LAYER_1
 10
188.6217
 20
97.7704
  0
VERTEX
  8
LAYER_1
 10
188.9738
 20
97.7704
  0
VERTEX
  8
LAYER_1
 10
188.9738
 20
97.5713
  0
VERTEX
  8
LAYER_1
 10
188.6217
 20
97.5713
  0
SEQEND
  0
POLYLINE
  8
LAYER_1
  6
AIGENLINE020
 40
0.1411
 41
0.1411
 66
1
 10
0
 20
0
 30
0
 70
128
  0
VERTEX
  8
LAYER_1
 10
187.9362
 20
97.5713
  0
VERTEX
  8
LAYER_1
 10
184.17
 20
97.5713
  0
SEQEND
  0
POLYLINE
  8
LAYER_1
 40
0.1411
 41
0.1411
 66
1
 10
0
 20
0
 30
0
  0
VERTEX
  8
LAYER_1
 10
198.906
 20
134.2712
  0
VERTEX
  8
LAYER_1
 10
199.2595
 20
134.2712
  0
SEQEND
  0
POLYLINE
  8
LAYER_1
 40
0.1411
 41
0.1411
 66
1
 10
0
 20
0
 30
0
  0
VERTEX
  8
LAYER_1
 10
199.3773
 20
134.2712
  0
VERTEX
  8
LAYER_1
 10
199.7294
 20
134.2712
  0
SEQEND
  0
POLYLINE
  8
LAYER_1
 40
0.1058
 41
0.1058
 66
1
 10
0
 20
0
 30
0
  0
VERTEX
  8
LAYER_1
 10
54.2423
 20
152.3721
  0
VERTEX
  8
LAYER_1
 10
54.2423
 20
156.1651
  0
SEQEND
  0
POLYLINE
  8
LAYER_1
 40
0.1058
 41
0.1058
 66
1
 10
0
 20
0
 30
0
  0
VERTEX
  8
LAYER_1
 10
124.2453
 20
152.7221
  0
VERTEX
  8
LAYER_1
 10
124.2453
 20
156.1651
  0
SEQEND
  0
POLYLINE
  8
LAYER_1
 40
0.1058
 41
0.1058
 66
1
 10
0
 20
0
 30
0
  0
VERTEX
  8
LAYER_1
 10
55.2435
 20
156.1472
  0
VERTEX
  8
LAYER_1
 10
93.2773
 20
156.1472
  0
SEQEND
  0
POLYLINE
  8
LAYER_1
 40
0.1058
 41
0.1058
 66
1
 10
0
 20
0
 30
0
  0
VERTEX
  8
LAYER_1
 10
123.2448
 20
156.1472
  0
VERTEX
  8
LAYER_1
 10
92.5408
 20
156.1472
  0
SEQEND
  0
POLYLINE
  8
LAYER_1
 40
0.05
 41
0.05
 66
1
 10
0
 20
0
 30
0
  0
VERTEX
  8
LAYER_1
 10
54.2423
 20
156.1472
  0
VERTEX
  8
LAYER_1
 10
55.2428
 20
155.9805
  0
VERTEX
  8
LAYER_1
 10
55.2428
 20
156.3133
  0
SEQEND
  0
POLYLINE
  8
LAYER_1
 40
0.05
 41
0.05
 66
1
 10
0
 20
0
 30
0
  0
VERTEX
  8
LAYER_1
 10
123.2455
 20
155.9805
  0
VERTEX
  8
LAYER_1
 10
124.2453
 20
156.1472
  0
VERTEX
  8
LAYER_1
 10
123.2455
 20
156.3133
  0
SEQEND
  0
TEXT
  8
LAYER_1
 10
86.2752
 20
157.3985
 11
86.2752
 21
157.3985
 40
3.5034
 41
0.5
  1
700
  0
POLYLINE
  8
LAYER_1
 40
0.1058
 41
0.1058
 66
1
 10
0
 20
0
 30
0
  0
VERTEX
  8
LAYER_1
 10
53.5451
 20
134.2712
  0
VERTEX
  8
LAYER_1
 10
48.5056
 20
134.2712
  0
SEQEND
  0
POLYLINE
  8
LAYER_1
 40
0.1058
 41
0.1058
 66
1
 10
0
 20
0
 30
0
  0
VERTEX
  8
LAYER_1
 10
53.3177
 20
152.2715
  0
VERTEX
  8
LAYER_1
 10
48.5056
 20
152.2715
  0
SEQEND
  0
POLYLINE
  8
LAYER_1
 40
0.1058
 41
0.1058
 66
1
 10
0
 20
0
 30
0
  0
VERTEX
  8
LAYER_1
 10
48.5242
 20
135.2717
  0
VERTEX
  8
LAYER_1
 10
48.5242
 20
146.8138
  0
SEQEND
  0
POLYLINE
  8
LAYER_1
 40
0.1058
 41
0.1058
 66
1
 10
0
 20
0
 30
0
  0
VERTEX
  8
LAYER_1
 10
48.5242
 20
151.2724
  0
VERTEX
  8
LAYER_1
 10
48.5242
 20
146.5333
  0
SEQEND
  0
POLYLINE
  8
LAYER_1
 40
0.05
 41
0.05
 66
1
 10
0
 20
0
 30
0
  0
VERTEX
  8
LAYER_1
 10
48.3574
 20
135.2717
  0
VERTEX
  8
LAYER_1
 10
48.5242
 20
134.2712
  0
VERTEX
  8
LAYER_1
 10
48.6902
 20
135.2717
  0
SEQEND
  0
POLYLINE
  8
LAYER_1
 40
0.05
 41
0.05
 66
1
 10
0
 20
0
 30
0
  0
VERTEX
  8
LAYER_1
 10
48.3574
 20
151.2724
  0
VERTEX
  8
LAYER_1
 10
48.6902
 20
151.2724
  0
VERTEX
  8
LAYER_1
 10
48.5242
 20
152.2722
  0
SEQEND
  0
TEXT
  8
LAYER_1
 10
52.3212
 20
141.1259
 11
52.3212
 21
141.1259
 40
3.5034
 41
0.5
 50
89.99999999
  1
180
  0
POLYLINE
  8
LAYER_1
 40
0.1058
 41
0.1058
 66
1
 10
0
 20
0
 30
0
  0
VERTEX
  8
LAYER_1
 10
53.5409
 20
69.2705
  0
VERTEX
  8
LAYER_1
 10
45.8012
 20
69.2705
  0
SEQEND
  0
POLYLINE
  8
LAYER_1
 40
0.1058
 41
0.1058
 66
1
 10
0
 20
0
 30
0
  0
VERTEX
  8
LAYER_1
 10
53.3177
 20
152.2715
  0
VERTEX
  8
LAYER_1
 10
45.8012
 20
152.2715
  0
SEQEND
  0
POLYLINE
  8
LAYER_1
 40
0.1058
 41
0.1058
 66
1
 10
0
 20
0
 30
0
  0
VERTEX
  8
LAYER_1
 10
45.8184
 20
70.2703
  0
VERTEX
  8
LAYER_1
 10
45.8184
 20
114.1215
  0
SEQEND
  0
POLYLINE
  8
LAYER_1
 40
0.1058
 41
0.1058
 66
1
 10
0
 20
0
 30
0
  0
VERTEX
  8
LAYER_1
 10
45.8184
 20
151.2724
  0
VERTEX
  8
LAYER_1
 10
45.8184
 20
114.0719
  0
SEQEND
  0
POLYLINE
  8
LAYER_1
 40
0.05
 41
0.05
 66
1
 10
0
 20
0
 30
0
  0
VERTEX
  8
LAYER_1
 10
45.6523
 20
70.2696
  0
VERTEX
  8
LAYER_1
 10
45.8184
 20
69.2698
  0
VERTEX
  8
LAYER_1
 10
45.9858
 20
70.2696
  0
SEQEND
  0
POLYLINE
  8
LAYER_1
 40
0.05
 41
0.05
 66
1
 10
0
 20
0
 30
0
  0
VERTEX
  8
LAYER_1
 10
45.6523
 20
151.2724
  0
VERTEX
  8
LAYER_1
 10
45.9858
 20
151.2724
  0
VERTEX
  8
LAYER_1
 10
45.8184
 20
152.2722
  0
SEQEND
  0
TEXT
  8
LAYER_1
 10
44.8019
 20
109.9561
 11
44.8019
 21
109.9561
 40
3.5034
 41
0.5
 50
89.99999999
  1
830
  0
POLYLINE
  8
LAYER_1
 40
0.1058
 41
0.1058
 66
1
 10
0
 20
0
 30
0
  0
VERTEX
  8
LAYER_1
 10
59.3452
 20
68.4134
  0
VERTEX
  8
LAYER_1
 10
59.3452
 20
66.1451
  0
SEQEND
  0
POLYLINE
  8
LAYER_1
 40
0.1058
 41
0.1058
 66
1
 10
0
 20
0
 30
0
  0
VERTEX
  8
LAYER_1
 10
119.1424
 20
68.4134
  0
VERTEX
  8
LAYER_1
 10
119.1424
 20
66.1451
  0
SEQEND
  0
POLYLINE
  8
LAYER_1
 40
0.1058
 41
0.1058
 66
1
 10
0
 20
0
 30
0
  0
VERTEX
  8
LAYER_1
 10
60.345
 20
66.1637
  0
VERTEX
  8
LAYER_1
 10
86.6483
 20
66.1637
  0
SEQEND
  0
POLYLINE
  8
LAYER_1
 40
0.1058
 41
0.1058
 66
1
 10
0
 20
0
 30
0
  0
VERTEX
  8
LAYER_1
 10
118.1433
 20
66.1637
  0
VERTEX
  8
LAYER_1
 10
84.8107
 20
66.1637
  0
SEQEND
  0
POLYLINE
  8
LAYER_1
 40
0.05
 41
0.05
 66
1
 10
0
 20
0
 30
0
  0
VERTEX
  8
LAYER_1
 10
59.3452
 20
66.1637
  0
VERTEX
  8
LAYER_1
 10
60.345
 20
65.9963
  0
VERTEX
  8
LAYER_1
 10
60.345
 20
66.3312
  0
SEQEND
  0
POLYLINE
  8
LAYER_1
 40
0.05
 41
0.05
 66
1
 10
0
 20
0
 30
0
  0
VERTEX
  8
LAYER_1
 10
118.1427
 20
65.997
  0
VERTEX
  8
LAYER_1
 10
119.1424
 20
66.1637
  0
VERTEX
  8
LAYER_1
 10
118.1427
 20
66.3312
  0
SEQEND
  0
TEXT
  8
LAYER_1
 10
85.5986
 20
61.59
 11
85.5986
 21
61.59
 40
3.5034
 41
0.5
  1
600
  0
POLYLINE
  8
LAYER_1
 40
0.1058
 41
0.1058
 66
1
 10
0
 20
0
 30
0
  0
VERTEX
  8
LAYER_1
 10
89.6076
 20
137.7769
  0
VERTEX
  8
LAYER_1
 10
88.7808
 20
137.7769
  0
SEQEND
  0
POLYLINE
  8
LAYER_1
 40
0.1058
 41
0.1058
 66
1
 10
0
 20
0
 30
0
  0
VERTEX
  8
LAYER_1
 10
89.6076
 20
152.2715
  0
VERTEX
  8
LAYER_1
 10
88.7808
 20
152.2715
  0
SEQEND
  0
POLYLINE
  8
LAYER_1
 40
0.1058
 41
0.1058
 66
1
 10
0
 20
0
 30
0
  0
VERTEX
  8
LAYER_1
 10
88.7629
 20
138.7781
  0
VERTEX
  8
LAYER_1
 10
88.7629
 20
148.4598
  0
SEQEND
  0
POLYLINE
  8
LAYER_1
 40
0.1058
 41
0.1058
 66
1
 10
0
 20
0
 30
0
  0
VERTEX
  8
LAYER_1
 10
88.7629
 20
151.2724
  0
VERTEX
  8
LAYER_1
 10
88.7629
 20
148.289
  0
SEQEND
  0
POLYLINE
  8
LAYER_1
 40
0.05
 41
0.05
 66
1
 10
0
 20
0
 30
0
  0
VERTEX
  8
LAYER_1
 10
88.5961
 20
138.7781
  0
VERTEX
  8
LAYER_1
 10
88.7629
 20
137.7769
  0
VERTEX
  8
LAYER_1
 10
88.9296
 20
138.7781
  0
SEQEND
  0
POLYLINE
  8
LAYER_1
 40
0.05
 41
0.05
 66
1
 10
0
 20
0
 30
0
  0
VERTEX
  8
LAYER_1
 10
88.5961
 20
151.2724
  0
VERTEX
  8
LAYER_1
 10
88.9296
 20
151.2724
  0
VERTEX
  8
LAYER_1
 10
88.7629
 20
152.2722
  0
SEQEND
  0
TEXT
  8
LAYER_1
 10
93.272
 20
142.9356
 11
93.272
 21
142.9356
 40
3.5034
 41
0.5
 50
89.99999999
  1
145
  0
POLYLINE
  8
LAYER_1
 40
0.1058
 41
0.1058
 66
1
 10
0
 20
0
 30
0
  0
VERTEX
  8
LAYER_1
 10
53.5451
 20
134.2712
  0
VERTEX
  8
LAYER_1
 10
48.5056
 20
134.2712
  0
SEQEND
  0
POLYLINE
  8
LAYER_1
 40
0.1058
 41
0.1058
 66
1
 10
0
 20
0
 30
0
  0
VERTEX
  8
LAYER_1
 10
53.5409
 20
99.2711
  0
VERTEX
  8
LAYER_1
 10
48.5056
 20
99.2711
  0
SEQEND
  0
POLYLINE
  8
LAYER_1
 40
0.1058
 41
0.1058
 66
1
 10
0
 20
0
 30
0
  0
VERTEX
  8
LAYER_1
 10
48.5242
 20
133.2715
  0
VERTEX
  8
LAYER_1
 10
48.5242
 20
120.0705
  0
SEQEND
  0
POLYLINE
  8
LAYER_1
 40
0.1058
 41
0.1058
 66
1
 10
0
 20
0
 30
0
  0
VERTEX
  8
LAYER_1
 10
48.5242
 20
100.2709
  0
VERTEX
  8
LAYER_1
 10
48.5242
 20
121.2722
  0
SEQEND
  0
POLYLINE
  8
LAYER_1
 40
0.05
 41
0.05
 66
1
 10
0
 20
0
 30
0
  0
VERTEX
  8
LAYER_1
 10
48.3574
 20
133.2715
  0
VERTEX
  8
LAYER_1
 10
48.6902
 20
133.2715
  0
VERTEX
  8
LAYER_1
 10
48.5242
 20
134.2712
  0
SEQEND
  0
POLYLINE
  8
LAYER_1
 40
0.05
 41
0.05
 66
1
 10
0
 20
0
 30
0
  0
VERTEX
  8
LAYER_1
 10
48.3574
 20
100.2709
  0
VERTEX
  8
LAYER_1
 10
48.5242
 20
99.2711
  0
VERTEX
  8
LAYER_1
 10
48.6902
 20
100.2709
  0
SEQEND
  0
TEXT
  8
LAYER_1
 10
52.3212
 20
114.6628
 11
52.3212
 21
114.6628
 40
3.5034
 41
0.5
 50
89.99999999
  1
350
  0
POLYLINE
  8
LAYER_1
 40
0.1058
 41
0.1058
 66
1
 10
0
 20
0
 30
0
  0
VERTEX
  8
LAYER_1
 10
53.5409
 20
99.2711
  0
VERTEX
  8
LAYER_1
 10
48.5056
 20
99.2711
  0
SEQEND
  0
POLYLINE
  8
LAYER_1
 40
0.1058
 41
0.1058
 66
1
 10
0
 20
0
 30
0
  0
VERTEX
  8
LAYER_1
 10
55.7086
 20
69.2705
  0
VERTEX
  8
LAYER_1
 10
48.5056
 20
69.2705
  0
SEQEND
  0
POLYLINE
  8
LAYER_1
 40
0.1058
 41
0.1058
 66
1
 10
0
 20
0
 30
0
  0
VERTEX
  8
LAYER_1
 10
48.5242
 20
98.2707
  0
VERTEX
  8
LAYER_1
 10
48.5242
 20
87.5695
  0
SEQEND
  0
POLYLINE
  8
LAYER_1
 40
0.1058
 41
0.1058
 66
1
 10
0
 20
0
 30
0
  0
VERTEX
  8
LAYER_1
 10
48.5242
 20
70.2703
  0
VERTEX
  8
LAYER_1
 10
48.5242
 20
87.4269
  0
SEQEND
  0
POLYLINE
  8
LAYER_1
 40
0.05
 41
0.05
 66
1
 10
0
 20
0
 30
0
  0
VERTEX
  8
LAYER_1
 10
48.3574
 20
98.2707
  0
VERTEX
  8
LAYER_1
 10
48.6902
 20
98.2707
  0
VERTEX
  8
LAYER_1
 10
48.5242
 20
99.2711
  0
SEQEND
  0
POLYLINE
  8
LAYER_1
 40
0.05
 41
0.05
 66
1
 10
0
 20
0
 30
0
  0
VERTEX
  8
LAYER_1
 10
48.3574
 20
70.2696
  0
VERTEX
  8
LAYER_1
 10
48.5242
 20
69.2698
  0
VERTEX
  8
LAYER_1
 10
48.6902
 20
70.2696
  0
SEQEND
  0
TEXT
  8
LAYER_1
 10
52.3212
 20
83.3372
 11
52.3212
 21
83.3372
 40
3.5034
 41
0.5
 50
89.99999999
  1
300
  0
POLYLINE
  8
LAYER_1
 40
0.1058
 41
0.1058
 66
1
 10
0
 20
0
 30
0
  0
VERTEX
  8
LAYER_1
 10
74.3507
 20
94.7711
  0
VERTEX
  8
LAYER_1
 10
74.3527
 20
94.7711
  0
SEQEND
  0
POLYLINE
  8
LAYER_1
 40
0.1058
 41
0.1058
 66
1
 10
0
 20
0
 30
0
  0
VERTEX
  8
LAYER_1
 10
74.6029
 20
97.7704
  0
VERTEX
  8
LAYER_1
 10
74.3527
 20
97.7704
  0
SEQEND
  0
POLYLINE
  8
LAYER_1
 40
0.1058
 41
0.1058
 66
1
 10
0
 20
0
 30
0
  0
VERTEX
  8
LAYER_1
 10
74.3713
 20
96.7707
  0
VERTEX
  8
LAYER_1
 10
74.3713
 20
95.7709
  0
SEQEND
  0
POLYLINE
  8
LAYER_1
 40
0.1058
 41
0.1058
 66
1
 10
0
 20
0
 30
0
  0
VERTEX
  8
LAYER_1
 10
74.3713
 20
94.7711
  0
VERTEX
  8
LAYER_1
 10
74.3713
 20
93.2539
  0
VERTEX
  8
LAYER_1
 10
73.3709
 20
93.2539
  0
SEQEND
  0
POLYLINE
  8
LAYER_1
 40
0.05
 41
0.05
 66
1
 10
0
 20
0
 30
0
  0
VERTEX
  8
LAYER_1
 10
74.2046
 20
96.7707
  0
VERTEX
  8
LAYER_1
 10
74.5367
 20
96.7707
  0
VERTEX
  8
LAYER_1
 10
74.3713
 20
97.7704
  0
SEQEND
  0
POLYLINE
  8
LAYER_1
 40
0.05
 41
0.05
 66
1
 10
0
 20
0
 30
0
  0
VERTEX
  8
LAYER_1
 10
74.2046
 20
95.7709
  0
VERTEX
  8
LAYER_1
 10
74.3713
 20
94.7711
  0
VERTEX
  8
LAYER_1
 10
74.5367
 20
95.7709
  0
SEQEND
  0
TEXT
  8
LAYER_1
 10
67.7974
 20
90.3724
 11
67.7974
 21
90.3724
 40
3.5034
 41
0.5
  1
30
  0
POLYLINE
  8
LAYER_1
 40
0.1058
 41
0.1058
 66
1
 10
0
 20
0
 30
0
  0
VERTEX
  8
LAYER_1
 10
56.7428
 20
99.9705
  0
VERTEX
  8
LAYER_1
 10
56.7428
 20
101.6717
  0
SEQEND
  0
POLYLINE
  8
LAYER_1
 40
0.1058
 41
0.1058
 66
1
 10
0
 20
0
 30
0
  0
VERTEX
  8
LAYER_1
 10
121.7449
 20
99.9705
  0
VERTEX
  8
LAYER_1
 10
121.7449
 20
101.6717
  0
SEQEND
  0
POLYLINE
  8
LAYER_1
 40
0.1058
 41
0.1058
 66
1
 10
0
 20
0
 30
0
  0
VERTEX
  8
LAYER_1
 10
57.7432
 20
101.6544
  0
VERTEX
  8
LAYER_1
 10
87.2243
 20
101.6544
  0
SEQEND
  0
POLYLINE
  8
LAYER_1
 40
0.1058
 41
0.1058
 66
1
 10
0
 20
0
 30
0
  0
VERTEX
  8
LAYER_1
 10
120.7451
 20
101.6544
  0
VERTEX
  8
LAYER_1
 10
86.106
 20
101.6544
  0
SEQEND
  0
POLYLINE
  8
LAYER_1
 40
0.05
 41
0.05
 66
1
 10
0
 20
0
 30
0
  0
VERTEX
  8
LAYER_1
 10
56.7428
 20
101.6544
  0
VERTEX
  8
LAYER_1
 10
57.7432
 20
101.4863
  0
VERTEX
  8
LAYER_1
 10
57.7432
 20
101.8205
  0
SEQEND
  0
POLYLINE
  8
LAYER_1
 40
0.05
 41
0.05
 66
1
 10
0
 20
0
 30
0
  0
VERTEX
  8
LAYER_1
 10
120.7465
 20
101.4863
  0
VERTEX
  8
LAYER_1
 10
121.7449
 20
101.6544
  0
VERTEX
  8
LAYER_1
 10
120.7465
 20
101.8205
  0
SEQEND
  0
TEXT
  8
LAYER_1
 10
86.753
 20
102.863
 11
86.753
 21
102.863
 40
3.5034
 41
0.5
  1
650
  0
POLYLINE
  8
LAYER_1
 40
0.1058
 41
0.1058
 66
1
 10
0
 20
0
 30
0
  0
VERTEX
  8
LAYER_1
 10
211.2243
 20
152.7221
  0
VERTEX
  8
LAYER_1
 10
211.2243
 20
162.3525
  0
SEQEND
  0
POLYLINE
  8
LAYER_1
 40
0.1058
 41
0.1058
 66
1
 10
0
 20
0
 30
0
  0
VERTEX
  8
LAYER_1
 10
214.2257
 20
152.7221
  0
VERTEX
  8
LAYER_1
 10
214.2257
 20
162.3525
  0
SEQEND
  0
POLYLINE
  8
LAYER_1
 40
0.1058
 41
0.1058
 66
1
 10
0
 20
0
 30
0
  0
VERTEX
  8
LAYER_1
 10
210.2245
 20
162.3346
  0
VERTEX
  8
LAYER_1
 10
209.2248
 20
162.3346
  0
SEQEND
  0
POLYLINE
  8
LAYER_1
 40
0.1058
 41
0.1058
 66
1
 10
0
 20
0
 30
0
  0
VERTEX
  8
LAYER_1
 10
215.2248
 20
162.3346
  0
VERTEX
  8
LAYER_1
 10
216.2252
 20
162.3346
  0
SEQEND
  0
POLYLINE
  8
LAYER_1
 40
0.05
 41
0.05
 66
1
 10
0
 20
0
 30
0
  0
VERTEX
  8
LAYER_1
 10
210.2245
 20
162.1686
  0
VERTEX
  8
LAYER_1
 10
211.2243
 20
162.3346
  0
VERTEX
  8
LAYER_1
 10
210.2245
 20
162.5014
  0
SEQEND
  0
POLYLINE
  8
LAYER_1
 40
0.05
 41
0.05
 66
1
 10
0
 20
0
 30
0
  0
VERTEX
  8
LAYER_1
 10
214.2257
 20
162.3346
  0
VERTEX
  8
LAYER_1
 10
215.2248
 20
162.1686
  0
VERTEX
  8
LAYER_1
 10
215.2248
 20
162.5014
  0
SEQEND
  0
TEXT
  8
LAYER_1
 10
194.7929
 20
163.6238
 11
194.7929
 21
163.6238
 40
3.5034
 41
0.5
  1
30mm推奨
  0
POLYLINE
  8
LAYER_1
 40
0.1058
 41
0.1058
 66
1
 10
0
 20
0
 30
0
  0
VERTEX
  8
LAYER_1
 10
166.1053
 20
68.4134
  0
VERTEX
  8
LAYER_1
 10
166.1053
 20
66.1451
  0
SEQEND
  0
POLYLINE
  8
LAYER_1
 40
0.1058
 41
0.1058
 66
1
 10
0
 20
0
 30
0
  0
VERTEX
  8
LAYER_1
 10
206.3426
 20
68.4134
  0
VERTEX
  8
LAYER_1
 10
206.3426
 20
66.1451
  0
SEQEND
  0
POLYLINE
  8
LAYER_1
 40
0.1058
 41
0.1058
 66
1
 10
0
 20
0
 30
0
  0
VERTEX
  8
LAYER_1
 10
167.1064
 20
66.1637
  0
VERTEX
  8
LAYER_1
 10
183.9709
 20
66.1637
  0
SEQEND
  0
POLYLINE
  8
LAYER_1
 40
0.1058
 41
0.1058
 66
1
 10
0
 20
0
 30
0
  0
VERTEX
  8
LAYER_1
 10
205.3428
 20
66.1637
  0
VERTEX
  8
LAYER_1
 10
182.5928
 20
66.1637
  0
SEQEND
  0
POLYLINE
  8
LAYER_1
 40
0.05
 41
0.05
 66
1
 10
0
 20
0
 30
0
  0
VERTEX
  8
LAYER_1
 10
166.1053
 20
66.1637
  0
VERTEX
  8
LAYER_1
 10
167.1064
 20
65.9963
  0
VERTEX
  8
LAYER_1
 10
167.1064
 20
66.3312
  0
SEQEND
  0
POLYLINE
  8
LAYER_1
 40
0.05
 41
0.05
 66
1
 10
0
 20
0
 30
0
  0
VERTEX
  8
LAYER_1
 10
205.3428
 20
65.997
  0
VERTEX
  8
LAYER_1
 10
206.3426
 20
66.1637
  0
VERTEX
  8
LAYER_1
 10
205.3428
 20
66.3312
  0
SEQEND
  0
TEXT
  8
LAYER_1
 10
183.7225
 20
62.3962
 11
183.7225
 21
62.3962
 40
3.5034
 41
0.5
  1
405
  0
POLYLINE
  8
LAYER_1
 40
0.1058
 41
0.1058
 66
1
 10
0
 20
0
 30
0
  0
VERTEX
  8
LAYER_1
 10
211.2243
 20
152.7221
  0
VERTEX
  8
LAYER_1
 10
211.2243
 20
156.3126
  0
SEQEND
  0
POLYLINE
  8
LAYER_1
 40
0.1058
 41
0.1058
 66
1
 10
0
 20
0
 30
0
  0
VERTEX
  8
LAYER_1
 10
161.2229
 20
152.7221
  0
VERTEX
  8
LAYER_1
 10
161.2229
 20
156.3126
  0
SEQEND
  0
POLYLINE
  8
LAYER_1
 40
0.1058
 41
0.1058
 66
1
 10
0
 20
0
 30
0
  0
VERTEX
  8
LAYER_1
 10
210.2245
 20
156.294
  0
VERTEX
  8
LAYER_1
 10
188.1125
 20
156.294
  0
SEQEND
  0
POLYLINE
  8
LAYER_1
 40
0.1058
 41
0.1058
 66
1
 10
0
 20
0
 30
0
  0
VERTEX
  8
LAYER_1
 10
162.2233
 20
156.294
  0
VERTEX
  8
LAYER_1
 10
189.8261
 20
156.294
  0
SEQEND
  0
POLYLINE
  8
LAYER_1
 40
0.05
 41
0.05
 66
1
 10
0
 20
0
 30
0
  0
VERTEX
  8
LAYER_1
 10
210.2245
 20
156.1266
  0
VERTEX
  8
LAYER_1
 10
211.2243
 20
156.294
  0
VERTEX
  8
LAYER_1
 10
210.2245
 20
156.46
  0
SEQEND
  0
POLYLINE
  8
LAYER_1
 40
0.05
 41
0.05
 66
1
 10
0
 20
0
 30
0
  0
VERTEX
  8
LAYER_1
 10
161.2229
 20
156.294
  0
VERTEX
  8
LAYER_1
 10
162.2233
 20
156.1266
  0
VERTEX
  8
LAYER_1
 10
162.2233
 20
156.46
  0
SEQEND
  0
TEXT
  8
LAYER_1
 10
183.1747
 20
157.1918
 11
183.1747
 21
157.1918
 40
3.5034
 41
0.5
  1
500
  0
POLYLINE
  8
LAYER_1
 40
0.1058
 41
0.1058
 66
1
 10
0
 20
0
 30
0
  0
VERTEX
  8
LAYER_1
 10
162.3701
 20
134.2712
  0
VERTEX
  8
LAYER_1
 10
159.5079
 20
134.2712
  0
SEQEND
  0
POLYLINE
  8
LAYER_1
 40
0.1058
 41
0.1058
 66
1
 10
0
 20
0
 30
0
  0
VERTEX
  8
LAYER_1
 10
171.255
 20
152.2715
  0
VERTEX
  8
LAYER_1
 10
159.5079
 20
152.2715
  0
SEQEND
  0
POLYLINE
  8
LAYER_1
 40
0.1058
 41
0.1058
 66
1
 10
0
 20
0
 30
0
  0
VERTEX
  8
LAYER_1
 10
159.5258
 20
135.2717
  0
VERTEX
  8
LAYER_1
 10
159.5258
 20
147.0487
  0
SEQEND
  0
POLYLINE
  8
LAYER_1
 40
0.1058
 41
0.1058
 66
1
 10
0
 20
0
 30
0
  0
VERTEX
  8
LAYER_1
 10
159.5258
 20
151.2724
  0
VERTEX
  8
LAYER_1
 10
159.5258
 20
146.5333
  0
SEQEND
  0
POLYLINE
  8
LAYER_1
 40
0.05
 41
0.05
 66
1
 10
0
 20
0
 30
0
  0
VERTEX
  8
LAYER_1
 10
159.3598
 20
135.2717
  0
VERTEX
  8
LAYER_1
 10
159.5258
 20
134.2712
  0
VERTEX
  8
LAYER_1
 10
159.6919
 20
135.2717
  0
SEQEND
  0
POLYLINE
  8
LAYER_1
 40
0.05
 41
0.05
 66
1
 10
0
 20
0
 30
0
  0
VERTEX
  8
LAYER_1
 10
159.3598
 20
151.2724
  0
VERTEX
  8
LAYER_1
 10
159.6919
 20
151.2724
  0
VERTEX
  8
LAYER_1
 10
159.5258
 20
152.2722
  0
SEQEND
  0
TEXT
  8
LAYER_1
 10
163.8305
 20
142.3014
 11
163.8305
 21
142.3014
 40
3.5034
 41
0.5
 50
89.99999999
  1
180
  0
POLYLINE
  8
LAYER_1
 40
0.1058
 41
0.1058
 66
1
 10
0
 20
0
 30
0
  0
VERTEX
  8
LAYER_1
 10
162.3701
 20
134.2712
  0
VERTEX
  8
LAYER_1
 10
159.5079
 20
134.2712
  0
SEQEND
  0
POLYLINE
  8
LAYER_1
 40
0.1058
 41
0.1058
 66
1
 10
0
 20
0
 30
0
  0
VERTEX
  8
LAYER_1
 10
162.3701
 20
99.2711
  0
VERTEX
  8
LAYER_1
 10
159.5079
 20
99.2711
  0
SEQEND
  0
POLYLINE
  8
LAYER_1
 40
0.1058
 41
0.1058
 66
1
 10
0
 20
0
 30
0
  0
VERTEX
  8
LAYER_1
 10
159.5258
 20
133.2715
  0
VERTEX
  8
LAYER_1
 10
159.5258
 20
120.0705
  0
SEQEND
  0
POLYLINE
  8
LAYER_1
 40
0.1058
 41
0.1058
 66
1
 10
0
 20
0
 30
0
  0
VERTEX
  8
LAYER_1
 10
159.5258
 20
100.2709
  0
VERTEX
  8
LAYER_1
 10
159.5258
 20
120.7658
  0
SEQEND
  0
POLYLINE
  8
LAYER_1
 40
0.05
 41
0.05
 66
1
 10
0
 20
0
 30
0
  0
VERTEX
  8
LAYER_1
 10
159.3598
 20
133.2715
  0
VERTEX
  8
LAYER_1
 10
159.6919
 20
133.2715
  0
VERTEX
  8
LAYER_1
 10
159.5258
 20
134.2712
  0
SEQEND
  0
POLYLINE
  8
LAYER_1
 40
0.05
 41
0.05
 66
1
 10
0
 20
0
 30
0
  0
VERTEX
  8
LAYER_1
 10
159.3598
 20
100.2709
  0
VERTEX
  8
LAYER_1
 10
159.5258
 20
99.2711
  0
VERTEX
  8
LAYER_1
 10
159.6919
 20
100.2709
  0
SEQEND
  0
TEXT
  8
LAYER_1
 10
163.6152
 20
115.8389
 11
163.6152
 21
115.8389
 40
3.5034
 41
0.5
 50
89.99999999
  1
350
  0
POLYLINE
  8
LAYER_1
 40
0.1058
 41
0.1058
 66
1
 10
0
 20
0
 30
0
  0
VERTEX
  8
LAYER_1
 10
162.3701
 20
99.2711
  0
VERTEX
  8
LAYER_1
 10
159.5079
 20
99.2711
  0
SEQEND
  0
POLYLINE
  8
LAYER_1
 40
0.1058
 41
0.1058
 66
1
 10
0
 20
0
 30
0
  0
VERTEX
  8
LAYER_1
 10
163.6593
 20
69.2705
  0
VERTEX
  8
LAYER_1
 10
159.5079
 20
69.2705
  0
SEQEND
  0
POLYLINE
  8
LAYER_1
 40
0.1058
 41
0.1058
 66
1
 10
0
 20
0
 30
0
  0
VERTEX
  8
LAYER_1
 10
159.5258
 20
98.2707
  0
VERTEX
  8
LAYER_1
 10
159.5258
 20
87.5695
  0
SEQEND
  0
POLYLINE
  8
LAYER_1
 40
0.1058
 41
0.1058
 66
1
 10
0
 20
0
 30
0
  0
VERTEX
  8
LAYER_1
 10
159.5258
 20
70.2703
  0
VERTEX
  8
LAYER_1
 10
159.5258
 20
89.7199
  0
SEQEND
  0
POLYLINE
  8
LAYER_1
 40
0.05
 41
0.05
 66
1
 10
0
 20
0
 30
0
  0
VERTEX
  8
LAYER_1
 10
159.3598
 20
98.2707
  0
VERTEX
  8
LAYER_1
 10
159.6919
 20
98.2707
  0
VERTEX
  8
LAYER_1
 10
159.5258
 20
99.2711
  0
SEQEND
  0
POLYLINE
  8
LAYER_1
 40
0.05
 41
0.05
 66
1
 10
0
 20
0
 30
0
  0
VERTEX
  8
LAYER_1
 10
159.3598
 20
70.2696
  0
VERTEX
  8
LAYER_1
 10
159.5258
 20
69.2698
  0
VERTEX
  8
LAYER_1
 10
159.6919
 20
70.2696
  0
SEQEND
  0
TEXT
  8
LAYER_1
 10
163.8305
 20
83.3379
 11
163.8305
 21
83.3379
 40
3.5034
 41
0.5
 50
89.99999999
  1
300
  0
POLYLINE
  8
LAYER_1
 40
0.1058
 41
0.1058
 66
1
 10
0
 20
0
 30
0
  0
VERTEX
  8
LAYER_1
 10
185.2242
 20
152.2715
  0
VERTEX
  8
LAYER_1
 10
156.8359
 20
152.2715
  0
SEQEND
  0
POLYLINE
  8
LAYER_1
 40
0.1058
 41
0.1058
 66
1
 10
0
 20
0
 30
0
  0
VERTEX
  8
LAYER_1
 10
163.6593
 20
69.2705
  0
VERTEX
  8
LAYER_1
 10
156.8359
 20
69.2705
  0
SEQEND
  0
POLYLINE
  8
LAYER_1
 40
0.1058
 41
0.1058
 66
1
 10
0
 20
0
 30
0
  0
VERTEX
  8
LAYER_1
 10
156.8545
 20
151.2724
  0
VERTEX
  8
LAYER_1
 10
156.8545
 20
114.0719
  0
SEQEND
  0
POLYLINE
  8
LAYER_1
 40
0.1058
 41
0.1058
 66
1
 10
0
 20
0
 30
0
  0
VERTEX
  8
LAYER_1
 10
156.8545
 20
70.2703
  0
VERTEX
  8
LAYER_1
 10
156.8545
 20
114.7685
  0
SEQEND
  0
POLYLINE
  8
LAYER_1
 40
0.05
 41
0.05
 66
1
 10
0
 20
0
 30
0
  0
VERTEX
  8
LAYER_1
 10
156.6864
 20
151.2724
  0
VERTEX
  8
LAYER_1
 10
157.0206
 20
151.2724
  0
VERTEX
  8
LAYER_1
 10
156.8524
 20
152.2722
  0
SEQEND
  0
POLYLINE
  8
LAYER_1
 40
0.05
 41
0.05
 66
1
 10
0
 20
0
 30
0
  0
VERTEX
  8
LAYER_1
 10
156.6864
 20
70.2696
  0
VERTEX
  8
LAYER_1
 10
156.8524
 20
69.2698
  0
VERTEX
  8
LAYER_1
 10
157.0206
 20
70.2696
  0
SEQEND
  0
TEXT
  8
LAYER_1
 10
155.7786
 20
109.8389
 11
155.7786
 21
109.8389
 40
3.5034
 41
0.5
 50
89.99999999
  1
830
  0
POLYLINE
  8
LAYER_1
 40
0.1058
 41
0.1058
 66
1
 10
0
 20
0
 30
0
  0
VERTEX
  8
LAYER_1
 10
185.2242
 20
137.7769
  0
VERTEX
  8
LAYER_1
 10
185.6817
 20
137.7769
  0
SEQEND
  0
POLYLINE
  8
LAYER_1
 40
0.1058
 41
0.1058
 66
1
 10
0
 20
0
 30
0
  0
VERTEX
  8
LAYER_1
 10
185.2242
 20
152.2715
  0
VERTEX
  8
LAYER_1
 10
185.6817
 20
152.2715
  0
SEQEND
  0
POLYLINE
  8
LAYER_1
 40
0.1058
 41
0.1058
 66
1
 10
0
 20
0
 30
0
  0
VERTEX
  8
LAYER_1
 10
185.6996
 20
138.7781
  0
VERTEX
  8
LAYER_1
 10
185.6996
 20
148.4598
  0
SEQEND
  0
POLYLINE
  8
LAYER_1
 40
0.1058
 41
0.1058
 66
1
 10
0
 20
0
 30
0
  0
VERTEX
  8
LAYER_1
 10
185.6996
 20
151.2724
  0
VERTEX
  8
LAYER_1
 10
185.6996
 20
148.289
  0
SEQEND
  0
POLYLINE
  8
LAYER_1
 40
0.05
 41
0.05
 66
1
 10
0
 20
0
 30
0
  0
VERTEX
  8
LAYER_1
 10
185.5329
 20
138.7767
  0
VERTEX
  8
LAYER_1
 10
185.6996
 20
137.7769
  0
VERTEX
  8
LAYER_1
 10
185.8663
 20
138.7767
  0
SEQEND
  0
POLYLINE
  8
LAYER_1
 40
0.05
 41
0.05
 66
1
 10
0
 20
0
 30
0
  0
VERTEX
  8
LAYER_1
 10
185.5329
 20
151.2724
  0
VERTEX
  8
LAYER_1
 10
185.8663
 20
151.2724
  0
VERTEX
  8
LAYER_1
 10
185.6996
 20
152.2722
  0
SEQEND
  0
TEXT
  8
LAYER_1
 10
190.3774
 20
142.9126
 11
190.3774
 21
142.9126
 40
3.5034
 41
0.5
 50
89.99999999
  1
145
  0
POLYLINE
  8
LAYER_1
 40
0.1058
 41
0.1058
 66
1
 10
0
 20
0
 30
0
  0
VERTEX
  8
LAYER_1
 10
178.8604
 20
97.7704
  0
VERTEX
  8
LAYER_1
 10
177.9922
 20
97.7704
  0
SEQEND
  0
POLYLINE
  8
LAYER_1
 40
0.1058
 41
0.1058
 66
1
 10
0
 20
0
 30
0
  0
VERTEX
  8
LAYER_1
 10
178.8604
 20
94.7711
  0
VERTEX
  8
LAYER_1
 10
177.9922
 20
94.7711
  0
SEQEND
  0
POLYLINE
  8
LAYER_1
 40
0.1058
 41
0.1058
 66
1
 10
0
 20
0
 30
0
  0
VERTEX
  8
LAYER_1
 10
177.9743
 20
96.7707
  0
VERTEX
  8
LAYER_1
 10
177.9743
 20
95.7709
  0
SEQEND
  0
POLYLINE
  8
LAYER_1
 40
0.1058
 41
0.1058
 66
1
 10
0
 20
0
 30
0
  0
VERTEX
  8
LAYER_1
 10
177.9743
 20
94.7711
  0
VERTEX
  8
LAYER_1
 10
177.9743
 20
93.77
  0
VERTEX
  8
LAYER_1
 10
176.9739
 20
93.77
  0
SEQEND
  0
POLYLINE
  8
LAYER_1
 40
0.05
 41
0.05
 66
1
 10
0
 20
0
 30
0
  0
VERTEX
  8
LAYER_1
 10
177.8076
 20
96.7707
  0
VERTEX
  8
LAYER_1
 10
178.1418
 20
96.7707
  0
VERTEX
  8
LAYER_1
 10
177.975
 20
97.7704
  0
SEQEND
  0
POLYLINE
  8
LAYER_1
 40
0.05
 41
0.05
 66
1
 10
0
 20
0
 30
0
  0
VERTEX
  8
LAYER_1
 10
177.8076
 20
95.7709
  0
VERTEX
  8
LAYER_1
 10
177.975
 20
94.7711
  0
VERTEX
  8
LAYER_1
 10
178.1418
 20
95.7709
  0
SEQEND
  0
TEXT
  8
LAYER_1
 10
172.6582
 20
90.3001
 11
172.6582
 21
90.3001
 40
3.5034
 41
0.5
  1
30
  0
POLYLINE
  8
LAYER_1
 40
0.1058
 41
0.1058
 66
1
 10
0
 20
0
 30
0
  0
VERTEX
  8
LAYER_1
 10
163.724
 20
99.9705
  0
VERTEX
  8
LAYER_1
 10
163.724
 20
101.6717
  0
SEQEND
  0
POLYLINE
  8
LAYER_1
 40
0.1058
 41
0.1058
 66
1
 10
0
 20
0
 30
0
  0
VERTEX
  8
LAYER_1
 10
208.7239
 20
99.9705
  0
VERTEX
  8
LAYER_1
 10
208.7239
 20
101.6717
  0
SEQEND
  0
POLYLINE
  8
LAYER_1
 40
0.1058
 41
0.1058
 66
1
 10
0
 20
0
 30
0
  0
VERTEX
  8
LAYER_1
 10
164.7238
 20
101.6544
  0
VERTEX
  8
LAYER_1
 10
183.851
 20
101.6544
  0
SEQEND
  0
POLYLINE
  8
LAYER_1
 40
0.1058
 41
0.1058
 66
1
 10
0
 20
0
 30
0
  0
VERTEX
  8
LAYER_1
 10
207.7234
 20
101.6544
  0
VERTEX
  8
LAYER_1
 10
183.851
 20
101.6544
  0
SEQEND
  0
POLYLINE
  8
LAYER_1
 40
0.05
 41
0.05
 66
1
 10
0
 20
0
 30
0
  0
VERTEX
  8
LAYER_1
 10
163.724
 20
101.6544
  0
VERTEX
  8
LAYER_1
 10
164.7238
 20
101.4863
  0
VERTEX
  8
LAYER_1
 10
164.7238
 20
101.8205
  0
SEQEND
  0
POLYLINE
  8
LAYER_1
 40
0.05
 41
0.05
 66
1
 10
0
 20
0
 30
0
  0
VERTEX
  8
LAYER_1
 10
207.7234
 20
101.4863
  0
VERTEX
  8
LAYER_1
 10
208.7239
 20
101.6544
  0
VERTEX
  8
LAYER_1
 10
207.7234
 20
101.8205
  0
SEQEND
  0
TEXT
  8
LAYER_1
 10
183.3228
 20
103.0804
 11
183.3228
 21
103.0804
 40
3.5034
 41
0.5
  1
450
  0
POLYLINE
  8
LAYER_1
 40
0.1058
 41
0.1058
 66
1
 10
0
 20
0
 30
0
  0
VERTEX
  8
LAYER_1
 10
190.8438
 20
94.7711
  0
VERTEX
  8
LAYER_1
 10
191.825
 20
94.7711
  0
SEQEND
  0
POLYLINE
  8
LAYER_1
 40
0.1058
 41
0.1058
 66
1
 10
0
 20
0
 30
0
  0
VERTEX
  8
LAYER_1
 10
190.8438
 20
69.2705
  0
VERTEX
  8
LAYER_1
 10
191.825
 20
69.2705
  0
SEQEND
  0
POLYLINE
  8
LAYER_1
 40
0.1058
 41
0.1058
 66
1
 10
0
 20
0
 30
0
  0
VERTEX
  8
LAYER_1
 10
191.8436
 20
93.77
  0
VERTEX
  8
LAYER_1
 10
191.8436
 20
85.3288
  0
SEQEND
  0
POLYLINE
  8
LAYER_1
 40
0.1058
 41
0.1058
 66
1
 10
0
 20
0
 30
0
  0
VERTEX
  8
LAYER_1
 10
191.8436
 20
70.2703
  0
VERTEX
  8
LAYER_1
 10
191.8436
 20
85.1331
  0
SEQEND
  0
POLYLINE
  8
LAYER_1
 40
0.05
 41
0.05
 66
1
 10
0
 20
0
 30
0
  0
VERTEX
  8
LAYER_1
 10
191.6768
 20
93.77
  0
VERTEX
  8
LAYER_1
 10
192.0096
 20
93.77
  0
VERTEX
  8
LAYER_1
 10
191.8436
 20
94.7711
  0
SEQEND
  0
POLYLINE
  8
LAYER_1
 40
0.05
 41
0.05
 66
1
 10
0
 20
0
 30
0
  0
VERTEX
  8
LAYER_1
 10
191.6768
 20
70.2696
  0
VERTEX
  8
LAYER_1
 10
191.8436
 20
69.2698
  0
VERTEX
  8
LAYER_1
 10
192.0096
 20
70.2696
  0
SEQEND
  0
TEXT
  8
LAYER_1
 10
190.9448
 20
81.4445
 11
190.9448
 21
81.4445
 40
3.5034
 41
0.5
 50
89.99999999
  1
255
  0
POLYLINE
  8
LAYER_1
 40
0.1058
 41
0.1058
 66
1
 10
0
 20
0
 30
0
  0
VERTEX
  8
LAYER_1
 10
81.008
 20
94.7711
  0
VERTEX
  8
LAYER_1
 10
81.9898
 20
94.7711
  0
SEQEND
  0
POLYLINE
  8
LAYER_1
 40
0.1058
 41
0.1058
 66
1
 10
0
 20
0
 30
0
  0
VERTEX
  8
LAYER_1
 10
81.008
 20
69.2705
  0
VERTEX
  8
LAYER_1
 10
81.9898
 20
69.2705
  0
SEQEND
  0
POLYLINE
  8
LAYER_1
 40
0.1058
 41
0.1058
 66
1
 10
0
 20
0
 30
0
  0
VERTEX
  8
LAYER_1
 10
82.0084
 20
93.77
  0
VERTEX
  8
LAYER_1
 10
82.0084
 20
85.3288
  0
SEQEND
  0
POLYLINE
  8
LAYER_1
 40
0.1058
 41
0.1058
 66
1
 10
0
 20
0
 30
0
  0
VERTEX
  8
LAYER_1
 10
82.0084
 20
70.2703
  0
VERTEX
  8
LAYER_1
 10
82.0084
 20
86.0158
  0
SEQEND
  0
POLYLINE
  8
LAYER_1
 40
0.05
 41
0.05
 66
1
 10
0
 20
0
 30
0
  0
VERTEX
  8
LAYER_1
 10
81.8417
 20
93.77
  0
VERTEX
  8
LAYER_1
 10
82.1752
 20
93.77
  0
VERTEX
  8
LAYER_1
 10
82.0084
 20
94.7711
  0
SEQEND
  0
POLYLINE
  8
LAYER_1
 40
0.05
 41
0.05
 66
1
 10
0
 20
0
 30
0
  0
VERTEX
  8
LAYER_1
 10
81.8417
 20
70.2696
  0
VERTEX
  8
LAYER_1
 10
82.0084
 20
69.2698
  0
VERTEX
  8
LAYER_1
 10
82.1752
 20
70.2696
  0
SEQEND
  0
TEXT
  8
LAYER_1
 10
85.3438
 20
80.9153
 11
85.3438
 21
80.9153
 40
3.5034
 41
0.5
 50
89.99999999
  1
255
  0
POLYLINE
  8
LAYER_1
 40
0.1058
 41
0.1058
 66
1
 10
0
 20
0
 30
0
  0
VERTEX
  8
LAYER_1
 10
122.9665
 20
99.2711
  0
VERTEX
  8
LAYER_1
 10
129.5886
 20
99.2711
  0
SEQEND
  0
POLYLINE
  8
LAYER_1
 40
0.1058
 41
0.1058
 66
1
 10
0
 20
0
 30
0
  0
VERTEX
  8
LAYER_1
 10
122.9665
 20
97.7704
  0
VERTEX
  8
LAYER_1
 10
129.5886
 20
97.7704
  0
SEQEND
  0
POLYLINE
  8
LAYER_1
 40
0.1058
 41
0.1058
 66
1
 10
0
 20
0
 30
0
  0
VERTEX
  8
LAYER_1
 10
129.5714
 20
100.2709
  0
VERTEX
  8
LAYER_1
 10
129.5714
 20
101.2706
  0
SEQEND
  0
POLYLINE
  8
LAYER_1
 40
0.1058
 41
0.1058
 66
1
 10
0
 20
0
 30
0
  0
VERTEX
  8
LAYER_1
 10
129.5714
 20
96.7707
  0
VERTEX
  8
LAYER_1
 10
129.5714
 20
95.7709
  0
VERTEX
  8
LAYER_1
 10
128.571
 20
95.7709
  0
SEQEND
  0
POLYLINE
  8
LAYER_1
 40
0.05
 41
0.05
 66
1
 10
0
 20
0
 30
0
  0
VERTEX
  8
LAYER_1
 10
129.4033
 20
100.2709
  0
VERTEX
  8
LAYER_1
 10
129.5714
 20
99.2711
  0
VERTEX
  8
LAYER_1
 10
129.7375
 20
100.2709
  0
SEQEND
  0
POLYLINE
  8
LAYER_1
 40
0.05
 41
0.05
 66
1
 10
0
 20
0
 30
0
  0
VERTEX
  8
LAYER_1
 10
129.4033
 20
96.7707
  0
VERTEX
  8
LAYER_1
 10
129.7375
 20
96.7707
  0
VERTEX
  8
LAYER_1
 10
129.5714
 20
97.7704
  0
SEQEND
  0
TEXT
  8
LAYER_1
 10
124.3662
 20
93.1506
 11
124.3662
 21
93.1506
 40
3.5034
 41
0.5
  1
15
  0
TEXT
  8
LAYER_1
 10
87.1337
 20
187.0199
 11
87.1337
 21
187.0199
 40
3.5034
 41
0.5
  1
46
  0
TEXT
  8
LAYER_1
 10
81.0576
 20
217.1473
 11
81.0576
 21
217.1473
 40
3.5034
 41
0.5
  1
35
  0
POLYLINE
  8
LAYER_1
 40
0.1058
 41
0.1058
 66
1
 10
0
 20
0
 30
0
  0
VERTEX
  8
LAYER_1
 10
89.2349
 20
193.9916
  0
VERTEX
  8
LAYER_1
 10
89.2528
 20
193.9916
  0
SEQEND
  0
POLYLINE
  8
LAYER_1
 40
0.1058
 41
0.1058
 66
1
 10
0
 20
0
 30
0
  0
VERTEX
  8
LAYER_1
 10
89.2445
 20
193.9833
  0
VERTEX
  8
LAYER_1
 10
89.2445
 20
194.0013
  0
SEQEND
  0
POLYLINE
  8
LAYER_1
 40
0.1058
 41
0.1058
 66
1
 10
0
 20
0
 30
0
  0
VERTEX
  8
LAYER_1
 10
116.9004
 20
180.666
  0
VERTEX
  8
LAYER_1
 10
116.9548
 20
180.7142
  0
SEQEND
  0
POLYLINE
  8
LAYER_1
 40
0.1058
 41
0.1058
 66
1
 10
0
 20
0
 30
0
  0
VERTEX
  8
LAYER_1
 10
119.8866
 20
177.3325
  0
VERTEX
  8
LAYER_1
 10
119.9424
 20
177.3814
  0
SEQEND
  0
POLYLINE
  8
LAYER_1
 40
0.1058
 41
0.1058
 66
1
 10
0
 20
0
 30
0
  0
VERTEX
  8
LAYER_1
 10
117.6094
 20
179.9584
  0
VERTEX
  8
LAYER_1
 10
117.8402
 20
179.6986
  0
SEQEND
  0
POLYLINE
  8
LAYER_1
 40
0.1058
 41
0.1058
 66
1
 10
0
 20
0
 30
0
  0
VERTEX
  8
LAYER_1
 10
119.2616
 20
178.1145
  0
VERTEX
  8
LAYER_1
 10
119.0294
 20
178.3722
  0
SEQEND
  0
POLYLINE
  8
LAYER_1
 40
0.05
 41
0.05
 66
1
 10
0
 20
0
 30
0
  0
VERTEX
  8
LAYER_1
 10
117.7334
 20
180.0693
  0
VERTEX
  8
LAYER_1
 10
117.4853
 20
179.8467
  0
VERTEX
  8
LAYER_1
 10
116.9417
 20
180.7032
  0
SEQEND
  0
POLYLINE
  8
LAYER_1
 40
0.05
 41
0.05
 66
1
 10
0
 20
0
 30
0
  0
VERTEX
  8
LAYER_1
 10
119.3856
 20
178.2255
  0
VERTEX
  8
LAYER_1
 10
119.1369
 20
178.0029
  0
VERTEX
  8
LAYER_1
 10
119.9286
 20
177.3697
  0
SEQEND
  0
TEXT
  8
LAYER_1
 10
118.0114
 20
180.1744
 11
118.0114
 21
180.1744
 40
3.5034
 41
0.5
 50
311.8573621
  1
45
  0
POLYLINE
  8
LAYER_1
 40
0.1058
 41
0.1058
 66
1
 10
0
 20
0
 30
0
  0
VERTEX
  8
LAYER_1
 10
90.2229
 20
171.019
  0
VERTEX
  8
LAYER_1
 10
89.27
 20
171.019
  0
SEQEND
  0
POLYLINE
  8
LAYER_1
 40
0.1058
 41
0.1058
 66
1
 10
0
 20
0
 30
0
  0
VERTEX
  8
LAYER_1
 10
88.2523
 20
176.5153
  0
VERTEX
  8
LAYER_1
 10
89.2342
 20
176.5153
  0
SEQEND
  0
POLYLINE
  8
LAYER_1
 40
0.1058
 41
0.1058
 66
1
 10
0
 20
0
 30
0
  0
VERTEX
  8
LAYER_1
 10
89.2521
 20
172.0188
  0
VERTEX
  8
LAYER_1
 10
89.2521
 20
172.4405
  0
SEQEND
  0
POLYLINE
  8
LAYER_1
 40
0.1058
 41
0.1058
 66
1
 10
0
 20
0
 30
0
  0
VERTEX
  8
LAYER_1
 10
89.2521
 20
175.5142
  0
VERTEX
  8
LAYER_1
 10
89.2521
 20
175.0939
  0
SEQEND
  0
POLYLINE
  8
LAYER_1
 40
0.05
 41
0.05
 66
1
 10
0
 20
0
 30
0
  0
VERTEX
  8
LAYER_1
 10
89.0853
 20
172.0188
  0
VERTEX
  8
LAYER_1
 10
89.2521
 20
171.019
  0
VERTEX
  8
LAYER_1
 10
89.4188
 20
172.0188
  0
SEQEND
  0
POLYLINE
  8
LAYER_1
 40
0.05
 41
0.05
 66
1
 10
0
 20
0
 30
0
  0
VERTEX
  8
LAYER_1
 10
89.0853
 20
175.5142
  0
VERTEX
  8
LAYER_1
 10
89.4188
 20
175.5142
  0
VERTEX
  8
LAYER_1
 10
89.2521
 20
176.5153
  0
SEQEND
  0
TEXT
  8
LAYER_1
 10
90.1173
 20
172.4405
 11
90.1173
 21
172.4405
 40
3.5034
 41
0.5
 50
89.99999999
  1
55
  0
POLYLINE
  8
LAYER_1
 40
0.1058
 41
0.1058
 66
1
 10
0
 20
0
 30
0
  0
VERTEX
  8
LAYER_1
 10
94.7298
 20
211.5216
  0
VERTEX
  8
LAYER_1
 10
93.7769
 20
211.5216
  0
SEQEND
  0
POLYLINE
  8
LAYER_1
 40
0.1058
 41
0.1058
 66
1
 10
0
 20
0
 30
0
  0
VERTEX
  8
LAYER_1
 10
92.7592
 20
221.0246
  0
VERTEX
  8
LAYER_1
 10
93.741
 20
221.0246
  0
SEQEND
  0
POLYLINE
  8
LAYER_1
 40
0.1058
 41
0.1058
 66
1
 10
0
 20
0
 30
0
  0
VERTEX
  8
LAYER_1
 10
93.759
 20
212.5221
  0
VERTEX
  8
LAYER_1
 10
93.759
 20
217.882
  0
SEQEND
  0
POLYLINE
  8
LAYER_1
 40
0.1058
 41
0.1058
 66
1
 10
0
 20
0
 30
0
  0
VERTEX
  8
LAYER_1
 10
93.759
 20
220.0241
  0
VERTEX
  8
LAYER_1
 10
93.759
 20
217.565
  0
SEQEND
  0
POLYLINE
  8
LAYER_1
 40
0.05
 41
0.05
 66
1
 10
0
 20
0
 30
0
  0
VERTEX
  8
LAYER_1
 10
93.5929
 20
212.5221
  0
VERTEX
  8
LAYER_1
 10
93.7583
 20
211.5216
  0
VERTEX
  8
LAYER_1
 10
93.925
 20
212.5221
  0
SEQEND
  0
POLYLINE
  8
LAYER_1
 40
0.05
 41
0.05
 66
1
 10
0
 20
0
 30
0
  0
VERTEX
  8
LAYER_1
 10
93.5929
 20
220.0241
  0
VERTEX
  8
LAYER_1
 10
93.925
 20
220.0241
  0
VERTEX
  8
LAYER_1
 10
93.7583
 20
221.0246
  0
SEQEND
  0
TEXT
  8
LAYER_1
 10
97.4471
 20
213.7968
 11
97.4471
 21
213.7968
 40
3.5034
 41
0.5
 50
89.99999999
  1
95
  0
POLYLINE
  8
LAYER_1
 40
0.1058
 41
0.1058
 66
1
 10
0
 20
0
 30
0
  0
VERTEX
  8
LAYER_1
 10
67.7878
 20
176.3059
  0
VERTEX
  8
LAYER_1
 10
66.9423
 20
176.7461
  0
SEQEND
  0
POLYLINE
  8
LAYER_1
 40
0.1058
 41
0.1058
 66
1
 10
0
 20
0
 30
0
  0
VERTEX
  8
LAYER_1
 10
68.5946
 20
182.1742
  0
VERTEX
  8
LAYER_1
 10
69.4669
 20
181.7202
  0
SEQEND
  0
POLYLINE
  8
LAYER_1
 40
0.1058
 41
0.1058
 66
1
 10
0
 20
0
 30
0
  0
VERTEX
  8
LAYER_1
 10
67.3881
 20
177.6412
  0
VERTEX
  8
LAYER_1
 10
67.5824
 20
178.016
  0
SEQEND
  0
POLYLINE
  8
LAYER_1
 40
0.1058
 41
0.1058
 66
1
 10
0
 20
0
 30
0
  0
VERTEX
  8
LAYER_1
 10
69.0211
 20
180.8244
  0
VERTEX
  8
LAYER_1
 10
68.8268
 20
180.451
  0
SEQEND
  0
POLYLINE
  8
LAYER_1
 40
0.05
 41
0.05
 66
1
 10
0
 20
0
 30
0
  0
VERTEX
  8
LAYER_1
 10
67.24
 20
177.719
  0
VERTEX
  8
LAYER_1
 10
67.5363
 20
177.5654
  0
VERTEX
  8
LAYER_1
 10
66.9265
 20
176.7551
  0
SEQEND
  0
POLYLINE
  8
LAYER_1
 40
0.05
 41
0.05
 66
1
 10
0
 20
0
 30
0
  0
VERTEX
  8
LAYER_1
 10
68.873
 20
180.9016
  0
VERTEX
  8
LAYER_1
 10
69.1686
 20
180.7473
  0
VERTEX
  8
LAYER_1
 10
69.4828
 20
181.7126
  0
SEQEND
  0
TEXT
  8
LAYER_1
 10
68.3893
 20
177.6532
 11
68.3893
 21
177.6532
 40
3.5034
 41
0.5
 50
62.52963513
  1
55
  0
POLYLINE
  8
LAYER_1
 40
0.1058
 41
0.1058
 66
1
 10
0
 20
0
 30
0
  0
VERTEX
  8
LAYER_1
 10
112.9116
 20
177.6308
  0
VERTEX
  8
LAYER_1
 10
112.1206
 20
177.101
  0
SEQEND
  0
POLYLINE
  8
LAYER_1
 40
0.1058
 41
0.1058
 66
1
 10
0
 20
0
 30
0
  0
VERTEX
  8
LAYER_1
 10
108.1974
 20
181.1883
  0
VERTEX
  8
LAYER_1
 10
109.0138
 20
181.7346
  0
SEQEND
  0
POLYLINE
  8
LAYER_1
 40
0.1058
 41
0.1058
 66
1
 10
0
 20
0
 30
0
  0
VERTEX
  8
LAYER_1
 10
111.5487
 20
177.923
  0
VERTEX
  8
LAYER_1
 10
111.3145
 20
178.273
  0
SEQEND
  0
POLYLINE
  8
LAYER_1
 40
0.1058
 41
0.1058
 66
1
 10
0
 20
0
 30
0
  0
VERTEX
  8
LAYER_1
 10
109.585
 20
180.9133
  0
VERTEX
  8
LAYER_1
 10
109.82
 20
180.5633
  0
SEQEND
  0
POLYLINE
  8
LAYER_1
 40
0.05
 41
0.05
 66
1
 10
0
 20
0
 30
0
  0
VERTEX
  8
LAYER_1
 10
111.4109
 20
177.8293
  0
VERTEX
  8
LAYER_1
 10
111.6872
 20
178.0146
  0
VERTEX
  8
LAYER_1
 10
112.1048
 20
177.092
  0
SEQEND
  0
POLYLINE
  8
LAYER_1
 40
0.05
 41
0.05
 66
1
 10
0
 20
0
 30
0
  0
VERTEX
  8
LAYER_1
 10
109.4465
 20
180.821
  0
VERTEX
  8
LAYER_1
 10
109.7235
 20
181.0057
  0
VERTEX
  8
LAYER_1
 10
109.0283
 20
181.7443
  0
SEQEND
  0
TEXT
  8
LAYER_1
 10
112.1168
 20
178.6813
 11
112.1168
 21
178.6813
 40
3.5034
 41
0.5
 50
123.7925649
  1
55
  0
POLYLINE
  8
LAYER_1
 40
0.1058
 41
0.1058
 66
1
 10
0
 20
0
 30
0
  0
VERTEX
  8
LAYER_1
 10
88.0318
 20
170.9825
  0
VERTEX
  8
LAYER_1
 10
51.1521
 20
170.9825
  0
SEQEND
  0
POLYLINE
  8
LAYER_1
 40
0.1058
 41
0.1058
 66
1
 10
0
 20
0
 30
0
  0
VERTEX
  8
LAYER_1
 10
88.1579
 20
220.9832
  0
VERTEX
  8
LAYER_1
 10
51.1528
 20
220.9832
  0
SEQEND
  0
POLYLINE
  8
LAYER_1
 40
0.1058
 41
0.1058
 66
1
 10
0
 20
0
 30
0
  0
VERTEX
  8
LAYER_1
 10
51.17
 20
171.9823
  0
VERTEX
  8
LAYER_1
 10
51.17
 20
199.2833
  0
SEQEND
  0
POLYLINE
  8
LAYER_1
 40
0.1058
 41
0.1058
 66
1
 10
0
 20
0
 30
0
  0
VERTEX
  8
LAYER_1
 10
51.17
 20
219.9828
  0
VERTEX
  8
LAYER_1
 10
51.17
 20
199.2833
  0
SEQEND
  0
POLYLINE
  8
LAYER_1
 40
0.05
 41
0.05
 66
1
 10
0
 20
0
 30
0
  0
VERTEX
  8
LAYER_1
 10
51.0033
 20
171.9823
  0
VERTEX
  8
LAYER_1
 10
51.17
 20
170.9825
  0
VERTEX
  8
LAYER_1
 10
51.3367
 20
171.9823
  0
SEQEND
  0
POLYLINE
  8
LAYER_1
 40
0.05
 41
0.05
 66
1
 10
0
 20
0
 30
0
  0
VERTEX
  8
LAYER_1
 10
51.0033
 20
219.9828
  0
VERTEX
  8
LAYER_1
 10
51.3367
 20
219.9828
  0
VERTEX
  8
LAYER_1
 10
51.17
 20
220.9839
  0
SEQEND
  0
TEXT
  8
LAYER_1
 10
50.0371
 20
193.8752
 11
50.0371
 21
193.8752
 40
3.5034
 41
0.5
 50
89.99999999
  1
500
  0
POLYLINE
  8
LAYER_1
 40
0.1058
 41
0.1058
 66
1
 10
0
 20
0
 30
0
  0
VERTEX
  8
LAYER_1
 10
90.2429
 20
176.5195
  0
VERTEX
  8
LAYER_1
 10
89.2604
 20
176.5195
  0
SEQEND
  0
POLYLINE
  8
LAYER_1
 40
0.1058
 41
0.1058
 66
1
 10
0
 20
0
 30
0
  0
VERTEX
  8
LAYER_1
 10
98.5091
 20
193.9826
  0
VERTEX
  8
LAYER_1
 10
99.4902
 20
193.9826
  0
SEQEND
  0
POLYLINE
  8
LAYER_1
 40
0.1058
 41
0.1058
 66
1
 10
0
 20
0
 30
0
  0
VERTEX
  8
LAYER_1
 10
99.5088
 20
177.5192
  0
VERTEX
  8
LAYER_1
 10
99.5088
 20
193.0098
  0
SEQEND
  0
POLYLINE
  8
LAYER_1
 40
0.1058
 41
0.1058
 66
1
 10
0
 20
0
 30
0
  0
VERTEX
  8
LAYER_1
 10
99.5088
 20
192.9822
  0
VERTEX
  8
LAYER_1
 10
99.5088
 20
187.1738
  0
SEQEND
  0
POLYLINE
  8
LAYER_1
 40
0.05
 41
0.05
 66
1
 10
0
 20
0
 30
0
  0
VERTEX
  8
LAYER_1
 10
99.3421
 20
177.5192
  0
VERTEX
  8
LAYER_1
 10
99.5088
 20
176.5195
  0
VERTEX
  8
LAYER_1
 10
99.6756
 20
177.5192
  0
SEQEND
  0
POLYLINE
  8
LAYER_1
 40
0.05
 41
0.05
 66
1
 10
0
 20
0
 30
0
  0
VERTEX
  8
LAYER_1
 10
99.3421
 20
192.9836
  0
VERTEX
  8
LAYER_1
 10
99.6756
 20
192.9836
  0
VERTEX
  8
LAYER_1
 10
99.5088
 20
193.9833
  0
SEQEND
  0
TEXT
  8
LAYER_1
 10
102.6678
 20
182.5243
 11
102.6678
 21
182.5243
 40
3.5034
 41
0.5
 50
89.99999999
  1
175
  0
POLYLINE
  8
LAYER_1
 40
0.1058
 41
0.1058
 66
1
 10
0
 20
0
 30
0
  0
VERTEX
  8
LAYER_1
 10
100.5086
 20
193.9826
  0
VERTEX
  8
LAYER_1
 10
99.5261
 20
193.9826
  0
SEQEND
  0
POLYLINE
  8
LAYER_1
 40
0.1058
 41
0.1058
 66
1
 10
0
 20
0
 30
0
  0
VERTEX
  8
LAYER_1
 10
88.242
 20
211.4458
  0
VERTEX
  8
LAYER_1
 10
89.2245
 20
211.4458
  0
SEQEND
  0
POLYLINE
  8
LAYER_1
 40
0.1058
 41
0.1058
 66
1
 10
0
 20
0
 30
0
  0
VERTEX
  8
LAYER_1
 10
99.5088
 20
194.9824
  0
VERTEX
  8
LAYER_1
 10
99.5088
 20
210.2972
  0
SEQEND
  0
POLYLINE
  8
LAYER_1
 40
0.1058
 41
0.1058
 66
1
 10
0
 20
0
 30
0
  0
VERTEX
  8
LAYER_1
 10
99.5088
 20
210.4461
  0
VERTEX
  8
LAYER_1
 10
99.5088
 20
204.6369
  0
SEQEND
  0
POLYLINE
  8
LAYER_1
 40
0.05
 41
0.05
 66
1
 10
0
 20
0
 30
0
  0
VERTEX
  8
LAYER_1
 10
99.3421
 20
194.9824
  0
VERTEX
  8
LAYER_1
 10
99.5088
 20
193.9826
  0
VERTEX
  8
LAYER_1
 10
99.6756
 20
194.9824
  0
SEQEND
  0
POLYLINE
  8
LAYER_1
 40
0.05
 41
0.05
 66
1
 10
0
 20
0
 30
0
  0
VERTEX
  8
LAYER_1
 10
99.3421
 20
210.4461
  0
VERTEX
  8
LAYER_1
 10
99.6756
 20
210.4461
  0
VERTEX
  8
LAYER_1
 10
99.5088
 20
211.4465
  0
SEQEND
  0
TEXT
  8
LAYER_1
 10
102.8442
 20
199.459
 11
102.8442
 21
199.459
 40
3.5034
 41
0.5
 50
89.99999999
  1
175
  0
POLYLINE
  8
LAYER_1
 40
0.1058
 41
0.1058
 66
1
 10
0
 20
0
 30
0
  0
VERTEX
  8
LAYER_1
 10
84.0693
 20
193.9826
  0
VERTEX
  8
LAYER_1
 10
83.0861
 20
193.9826
  0
SEQEND
  0
POLYLINE
  8
LAYER_1
 40
0.1058
 41
0.1058
 66
1
 10
0
 20
0
 30
0
  0
VERTEX
  8
LAYER_1
 10
85.3998
 20
215.983
  0
VERTEX
  8
LAYER_1
 10
83.0502
 20
215.983
  0
SEQEND
  0
POLYLINE
  8
LAYER_1
 40
0.1058
 41
0.1058
 66
1
 10
0
 20
0
 30
0
  0
VERTEX
  8
LAYER_1
 10
83.0695
 20
194.9824
  0
VERTEX
  8
LAYER_1
 10
83.0695
 20
210.1209
  0
SEQEND
  0
POLYLINE
  8
LAYER_1
 40
0.1058
 41
0.1058
 66
1
 10
0
 20
0
 30
0
  0
VERTEX
  8
LAYER_1
 10
83.0695
 20
214.9833
  0
VERTEX
  8
LAYER_1
 10
83.0695
 20
209.5765
  0
SEQEND
  0
POLYLINE
  8
LAYER_1
 40
0.05
 41
0.05
 66
1
 10
0
 20
0
 30
0
  0
VERTEX
  8
LAYER_1
 10
82.9021
 20
194.9824
  0
VERTEX
  8
LAYER_1
 10
83.0695
 20
193.9826
  0
VERTEX
  8
LAYER_1
 10
83.2363
 20
194.9824
  0
SEQEND
  0
POLYLINE
  8
LAYER_1
 40
0.05
 41
0.05
 66
1
 10
0
 20
0
 30
0
  0
VERTEX
  8
LAYER_1
 10
82.9021
 20
214.9833
  0
VERTEX
  8
LAYER_1
 10
83.2363
 20
214.9833
  0
VERTEX
  8
LAYER_1
 10
83.0695
 20
215.983
  0
SEQEND
  0
TEXT
  8
LAYER_1
 10
82.4058
 20
203.1039
 11
82.4058
 21
203.1039
 40
3.5034
 41
0.5
 50
89.99999999
  1
220
  0
POLYLINE
  8
LAYER_1
 40
0.1058
 41
0.1058
 66
1
 10
0
 20
0
 30
0
  0
VERTEX
  8
LAYER_1
 10
88.242
 20
220.9839
  0
VERTEX
  8
LAYER_1
 10
89.2245
 20
220.9839
  0
SEQEND
  0
POLYLINE
  8
LAYER_1
 40
0.1058
 41
0.1058
 66
1
 10
0
 20
0
 30
0
  0
VERTEX
  8
LAYER_1
 10
88.242
 20
223.9839
  0
VERTEX
  8
LAYER_1
 10
89.2245
 20
223.9839
  0
SEQEND
  0
POLYLINE
  8
LAYER_1
 40
0.1058
 41
0.1058
 66
1
 10
0
 20
0
 30
0
  0
VERTEX
  8
LAYER_1
 10
89.2431
 20
221.9837
  0
VERTEX
  8
LAYER_1
 10
89.2431
 20
222.9835
  0
SEQEND
  0
POLYLINE
  8
LAYER_1
 40
0.1058
 41
0.1058
 66
1
 10
0
 20
0
 30
0
  0
VERTEX
  8
LAYER_1
 10
89.2431
 20
223.9839
  0
VERTEX
  8
LAYER_1
 10
89.2431
 20
224.9837
  0
VERTEX
  8
LAYER_1
 10
90.2429
 20
224.9837
  0
SEQEND
  0
POLYLINE
  8
LAYER_1
 40
0.05
 41
0.05
 66
1
 10
0
 20
0
 30
0
  0
VERTEX
  8
LAYER_1
 10
89.0757
 20
221.9837
  0
VERTEX
  8
LAYER_1
 10
89.2424
 20
220.9839
  0
VERTEX
  8
LAYER_1
 10
89.4092
 20
221.9837
  0
SEQEND
  0
POLYLINE
  8
LAYER_1
 40
0.05
 41
0.05
 66
1
 10
0
 20
0
 30
0
  0
VERTEX
  8
LAYER_1
 10
89.0757
 20
222.9835
  0
VERTEX
  8
LAYER_1
 10
89.4092
 20
222.9835
  0
VERTEX
  8
LAYER_1
 10
89.2424
 20
223.9832
  0
SEQEND
  0
TEXT
  8
LAYER_1
 10
90.6194
 20
225.5936
 11
90.6194
 21
225.5936
 40
3.5034
 41
0.5
  1
30mm推奨
  0
POLYLINE
  8
LAYER_1
 40
0.1058
 41
0.1058
 66
1
 10
0
 20
0
 30
0
  0
VERTEX
  8
LAYER_1
 10
60.232
 20
194.9728
  0
VERTEX
  8
LAYER_1
 10
60.232
 20
167.6704
  0
SEQEND
  0
POLYLINE
  8
LAYER_1
 40
0.1058
 41
0.1058
 66
1
 10
0
 20
0
 30
0
  0
VERTEX
  8
LAYER_1
 10
118.2481
 20
194.9859
  0
VERTEX
  8
LAYER_1
 10
118.2481
 20
167.6711
  0
SEQEND
  0
POLYLINE
  8
LAYER_1
 40
0.1058
 41
0.1058
 66
1
 10
0
 20
0
 30
0
  0
VERTEX
  8
LAYER_1
 10
61.045
 20
167.6883
  0
VERTEX
  8
LAYER_1
 10
86.6607
 20
167.6883
  0
SEQEND
  0
POLYLINE
  8
LAYER_1
 40
0.1058
 41
0.1058
 66
1
 10
0
 20
0
 30
0
  0
VERTEX
  8
LAYER_1
 10
117.4481
 20
167.6883
  0
VERTEX
  8
LAYER_1
 10
86.2803
 20
167.6883
  0
SEQEND
  0
POLYLINE
  8
LAYER_1
 40
0.05
 41
0.05
 66
1
 10
0
 20
0
 30
0
  0
VERTEX
  8
LAYER_1
 10
60.232
 20
167.6883
  0
VERTEX
  8
LAYER_1
 10
61.045
 20
167.5216
  0
VERTEX
  8
LAYER_1
 10
61.045
 20
167.8544
  0
SEQEND
  0
POLYLINE
  8
LAYER_1
 40
0.05
 41
0.05
 66
1
 10
0
 20
0
 30
0
  0
VERTEX
  8
LAYER_1
 10
117.4481
 20
167.5216
  0
VERTEX
  8
LAYER_1
 10
118.2481
 20
167.6883
  0
VERTEX
  8
LAYER_1
 10
117.4481
 20
167.8544
  0
SEQEND
  0
TEXT
  8
LAYER_1
 10
86.5088
 20
164.8495
 11
86.5088
 21
164.8495
 40
3.5034
 41
0.5
  1
580
  0
POLYLINE
  8
LAYER_1
 40
0.1058
 41
0.1058
 66
1
 10
0
 20
0
 30
0
  0
VERTEX
  8
LAYER_1
 10
54.241
 20
191.0929
  0
VERTEX
  8
LAYER_1
 10
54.241
 20
163.7905
  0
SEQEND
  0
POLYLINE
  8
LAYER_1
 40
0.1058
 41
0.1058
 66
1
 10
0
 20
0
 30
0
  0
VERTEX
  8
LAYER_1
 10
124.2432
 20
191.106
  0
VERTEX
  8
LAYER_1
 10
124.2432
 20
163.7905
  0
SEQEND
  0
POLYLINE
  8
LAYER_1
 40
0.1058
 41
0.1058
 66
1
 10
0
 20
0
 30
0
  0
VERTEX
  8
LAYER_1
 10
55.2414
 20
163.8084
  0
VERTEX
  8
LAYER_1
 10
87.0038
 20
163.8084
  0
SEQEND
  0
POLYLINE
  8
LAYER_1
 40
0.1058
 41
0.1058
 66
1
 10
0
 20
0
 30
0
  0
VERTEX
  8
LAYER_1
 10
123.2435
 20
163.8084
  0
VERTEX
  8
LAYER_1
 10
86.8977
 20
163.8084
  0
SEQEND
  0
POLYLINE
  8
LAYER_1
 40
0.05
 41
0.05
 66
1
 10
0
 20
0
 30
0
  0
VERTEX
  8
LAYER_1
 10
54.241
 20
163.8077
  0
VERTEX
  8
LAYER_1
 10
55.2414
 20
163.6403
  0
VERTEX
  8
LAYER_1
 10
55.2414
 20
163.9745
  0
SEQEND
  0
POLYLINE
  8
LAYER_1
 40
0.05
 41
0.05
 66
1
 10
0
 20
0
 30
0
  0
VERTEX
  8
LAYER_1
 10
123.2435
 20
163.6403
  0
VERTEX
  8
LAYER_1
 10
124.2439
 20
163.8077
  0
VERTEX
  8
LAYER_1
 10
123.2435
 20
163.9745
  0
SEQEND
  0
POLYLINE
  8
LAYER_1
 40
0.1058
 41
0.1058
 66
1
 10
0
 20
0
 30
0
  0
VERTEX
  8
LAYER_1
 10
93.5102
 20
69.2705
  0
VERTEX
  8
LAYER_1
 10
94.541
 20
69.2705
  0
SEQEND
  0
POLYLINE
  8
LAYER_1
 40
0.1058
 41
0.1058
 66
1
 10
0
 20
0
 30
0
  0
VERTEX
  8
LAYER_1
 10
97.8752
 20
69.2705
  0
VERTEX
  8
LAYER_1
 10
98.9059
 20
69.2705
  0
SEQEND
  0
POLYLINE
  8
LAYER_1
 40
0.1058
 41
0.1058
 66
1
 10
0
 20
0
 30
0
  0
VERTEX
  8
LAYER_1
 10
93.4358
 20
69.2705
  0
VERTEX
  8
LAYER_1
 10
78.3415
 20
69.2705
  0
SEQEND
  0
CIRCLE
  8
LAYER_1
 10
89.2528
 20
215.9844
 40
1.7501
  0
POLYLINE
  8
LAYER_1
 40
0.1058
 41
0.1058
 66
1
 10
0
 20
0
 30
0
  0
VERTEX
  8
LAYER_1
 10
185.7733
 20
189.1659
  0
VERTEX
  8
LAYER_1
 10
184.9648
 20
189.7078
  0
SEQEND
  0
POLYLINE
  8
LAYER_1
 40
0.1058
 41
0.1058
 66
1
 10
0
 20
0
 30
0
  0
VERTEX
  8
LAYER_1
 10
212.5465
 20
195.421
  0
VERTEX
  8
LAYER_1
 10
212.5465
 20
193.4822
  0
SEQEND
  0
POLYLINE
  8
LAYER_1
 40
0.1058
 41
0.1058
 66
1
 10
0
 20
0
 30
0
  0
VERTEX
  8
LAYER_1
 10
212.5465
 20
195.421
  0
VERTEX
  8
LAYER_1
 10
213.5522
 20
195.421
  0
VERTEX
  8
LAYER_1
 10
213.5522
 20
193.4822
  0
SEQEND
  0
POLYLINE
  8
LAYER_1
 40
0.1058
 41
0.1058
 66
1
 10
0
 20
0
 30
0
  0
VERTEX
  8
LAYER_1
 10
212.5465
 20
193.4822
  0
VERTEX
  8
LAYER_1
 10
213.5522
 20
193.4822
  0
SEQEND
  0
POLYLINE
  8
LAYER_1
 40
0.1058
 41
0.1058
 66
1
 10
0
 20
0
 30
0
  0
VERTEX
  8
LAYER_1
 10
212.5465
 20
193.4822
  0
VERTEX
  8
LAYER_1
 10
213.5522
 20
193.6609
  0
SEQEND
  0
POLYLINE
  8
LAYER_1
 40
0.1058
 41
0.1058
 66
1
 10
0
 20
0
 30
0
  0
VERTEX
  8
LAYER_1
 10
212.5465
 20
193.6988
  0
VERTEX
  8
LAYER_1
 10
213.5522
 20
193.8764
  0
SEQEND
  0
POLYLINE
  8
LAYER_1
 40
0.1058
 41
0.1058
 66
1
 10
0
 20
0
 30
0
  0
VERTEX
  8
LAYER_1
 10
212.5465
 20
193.8967
  0
VERTEX
  8
LAYER_1
 10
213.5522
 20
194.0753
  0
SEQEND
  0
POLYLINE
  8
LAYER_1
 40
0.1058
 41
0.1058
 66
1
 10
0
 20
0
 30
0
  0
VERTEX
  8
LAYER_1
 10
212.5465
 20
194.0903
  0
VERTEX
  8
LAYER_1
 10
213.5522
 20
194.2684
  0
SEQEND
  0
POLYLINE
  8
LAYER_1
 40
0.1058
 41
0.1058
 66
1
 10
0
 20
0
 30
0
  0
VERTEX
  8
LAYER_1
 10
212.5465
 20
194.2612
  0
VERTEX
  8
LAYER_1
 10
213.5522
 20
194.4398
  0
SEQEND
  0
POLYLINE
  8
LAYER_1
 40
0.1058
 41
0.1058
 66
1
 10
0
 20
0
 30
0
  0
VERTEX
  8
LAYER_1
 10
212.5465
 20
194.4407
  0
VERTEX
  8
LAYER_1
 10
213.5522
 20
194.6178
  0
SEQEND
  0
POLYLINE
  8
LAYER_1
 40
0.1058
 41
0.1058
 66
1
 10
0
 20
0
 30
0
  0
VERTEX
  8
LAYER_1
 10
212.5465
 20
194.615
  0
VERTEX
  8
LAYER_1
 10
213.5522
 20
194.7936
  0
SEQEND
  0
POLYLINE
  8
LAYER_1
 40
0.1058
 41
0.1058
 66
1
 10
0
 20
0
 30
0
  0
VERTEX
  8
LAYER_1
 10
212.5465
 20
194.7978
  0
VERTEX
  8
LAYER_1
 10
213.5522
 20
194.9757
  0
SEQEND
  0
POLYLINE
  8
LAYER_1
 40
0.1058
 41
0.1058
 66
1
 10
0
 20
0
 30
0
  0
VERTEX
  8
LAYER_1
 10
212.5465
 20
194.9802
  0
VERTEX
  8
LAYER_1
 10
213.5522
 20
195.1581
  0
SEQEND
  0
POLYLINE
  8
LAYER_1
 40
0.1058
 41
0.1058
 66
1
 10
0
 20
0
 30
0
  0
VERTEX
  8
LAYER_1
 10
212.5465
 20
195.1743
  0
VERTEX
  8
LAYER_1
 10
213.5522
 20
195.3516
  0
SEQEND
  0
POLYLINE
  8
LAYER_1
 40
0.1058
 41
0.1058
 66
1
 10
0
 20
0
 30
0
  0
VERTEX
  8
LAYER_1
 10
213.5522
 20
193.4822
  0
VERTEX
  8
LAYER_1
 10
214.3218
 20
193.4822
  0
VERTEX
  8
LAYER_1
 10
214.3218
 20
193.0695
  0
VERTEX
  8
LAYER_1
 10
211.8289
 20
193.0695
  0
VERTEX
  8
LAYER_1
 10
211.8289
 20
193.5074
  0
VERTEX
  8
LAYER_1
 10
212.5459
 20
193.4822
  0
SEQEND
  0
POLYLINE
  8
LAYER_1
 40
0.1058
 41
0.1058
 66
1
 10
0
 20
0
 30
0
  0
VERTEX
  8
LAYER_1
 10
224.2313
 20
194.4338
  0
VERTEX
  8
LAYER_1
 10
224.2313
 20
193.737
  0
VERTEX
  8
LAYER_1
 10
226.7231
 20
193.737
  0
VERTEX
  8
LAYER_1
 10
226.7231
 20
194.4338
  0
SEQEND
  0
POLYLINE
  8
LAYER_1
 40
0.1058
 41
0.1058
 66
1
 10
0
 20
0
 30
0
  0
VERTEX
  8
LAYER_1
 10
225.9535
 20
194.846
  0
VERTEX
  8
LAYER_1
 10
226.7231
 20
194.846
  0
VERTEX
  8
LAYER_1
 10
226.7231
 20
194.4338
  0
VERTEX
  8
LAYER_1
 10
224.2313
 20
194.4338
  0
VERTEX
  8
LAYER_1
 10
224.2313
 20
194.8715
  0
VERTEX
  8
LAYER_1
 10
224.9472
 20
194.846
  0
SEQEND
  0
POLYLINE
  8
LAYER_1
 40
0.1058
 41
0.1058
 66
1
 10
0
 20
0
 30
0
  0
VERTEX
  8
LAYER_1
 10
224.9472
 20
196.5384
  0
VERTEX
  8
LAYER_1
 10
225.9535
 20
196.7167
  0
SEQEND
  0
POLYLINE
  8
LAYER_1
 40
0.1058
 41
0.1058
 66
1
 10
0
 20
0
 30
0
  0
VERTEX
  8
LAYER_1
 10
224.9472
 20
196.3437
  0
VERTEX
  8
LAYER_1
 10
225.9535
 20
196.5215
  0
SEQEND
  0
POLYLINE
  8
LAYER_1
 40
0.1058
 41
0.1058
 66
1
 10
0
 20
0
 30
0
  0
VERTEX
  8
LAYER_1
 10
224.9472
 20
196.1617
  0
VERTEX
  8
LAYER_1
 10
225.9535
 20
196.3393
  0
SEQEND
  0
POLYLINE
  8
LAYER_1
 40
0.1058
 41
0.1058
 66
1
 10
0
 20
0
 30
0
  0
VERTEX
  8
LAYER_1
 10
224.9472
 20
195.9786
  0
VERTEX
  8
LAYER_1
 10
225.9535
 20
196.157
  0
SEQEND
  0
POLYLINE
  8
LAYER_1
 40
0.1058
 41
0.1058
 66
1
 10
0
 20
0
 30
0
  0
VERTEX
  8
LAYER_1
 10
224.9472
 20
195.8039
  0
VERTEX
  8
LAYER_1
 10
225.9535
 20
195.9817
  0
SEQEND
  0
POLYLINE
  8
LAYER_1
 40
0.1058
 41
0.1058
 66
1
 10
0
 20
0
 30
0
  0
VERTEX
  8
LAYER_1
 10
224.9472
 20
195.6251
  0
VERTEX
  8
LAYER_1
 10
225.9535
 20
195.8032
  0
SEQEND
  0
POLYLINE
  8
LAYER_1
 40
0.1058
 41
0.1058
 66
1
 10
0
 20
0
 30
0
  0
VERTEX
  8
LAYER_1
 10
224.9472
 20
195.4542
  0
VERTEX
  8
LAYER_1
 10
225.9535
 20
195.6328
  0
SEQEND
  0
POLYLINE
  8
LAYER_1
 40
0.1058
 41
0.1058
 66
1
 10
0
 20
0
 30
0
  0
VERTEX
  8
LAYER_1
 10
224.9472
 20
195.2606
  0
VERTEX
  8
LAYER_1
 10
225.9535
 20
195.4389
  0
SEQEND
  0
POLYLINE
  8
LAYER_1
 40
0.1058
 41
0.1058
 66
1
 10
0
 20
0
 30
0
  0
VERTEX
  8
LAYER_1
 10
224.9472
 20
195.063
  0
VERTEX
  8
LAYER_1
 10
225.9535
 20
195.2403
  0
SEQEND
  0
POLYLINE
  8
LAYER_1
 40
0.1058
 41
0.1058
 66
1
 10
0
 20
0
 30
0
  0
VERTEX
  8
LAYER_1
 10
224.9472
 20
194.846
  0
VERTEX
  8
LAYER_1
 10
225.9535
 20
195.0246
  0
SEQEND
  0
POLYLINE
  8
LAYER_1
 40
0.1058
 41
0.1058
 66
1
 10
0
 20
0
 30
0
  0
VERTEX
  8
LAYER_1
 10
224.9472
 20
194.846
  0
VERTEX
  8
LAYER_1
 10
225.9535
 20
194.846
  0
SEQEND
  0
POLYLINE
  8
LAYER_1
 40
0.1058
 41
0.1058
 66
1
 10
0
 20
0
 30
0
  0
VERTEX
  8
LAYER_1
 10
224.9472
 20
196.7849
  0
VERTEX
  8
LAYER_1
 10
225.9535
 20
196.7849
  0
VERTEX
  8
LAYER_1
 10
225.9535
 20
194.846
  0
SEQEND
  0
POLYLINE
  8
LAYER_1
 40
0.1058
 41
0.1058
 66
1
 10
0
 20
0
 30
0
  0
VERTEX
  8
LAYER_1
 10
224.9472
 20
196.7849
  0
VERTEX
  8
LAYER_1
 10
224.9472
 20
194.846
  0
SEQEND
  0
POLYLINE
  8
LAYER_1
 40
0.1058
 41
0.1058
 66
1
 10
0
 20
0
 30
0
  0
VERTEX
  8
LAYER_1
 10
208.6343
 20
194.9802
  0
VERTEX
  8
LAYER_1
 10
211.3029
 20
194.9681
  0
VERTEX
  8
LAYER_1
 10
216.1174
 20
194.9681
  0
SEQEND
  0
POLYLINE
  8
LAYER_1
 40
0.1058
 41
0.1058
 66
1
 10
0
 20
0
 30
0
  0
VERTEX
  8
LAYER_1
 10
211.8296
 20
193.07
  0
VERTEX
  8
LAYER_1
 10
211.8296
 20
192.3738
  0
VERTEX
  8
LAYER_1
 10
214.3218
 20
192.3738
  0
VERTEX
  8
LAYER_1
 10
214.3218
 20
193.07
  0
SEQEND
  0
POLYLINE
  8
LAYER_1
 40
0.1058
 41
0.1058
 66
1
 10
0
 20
0
 30
0
  0
VERTEX
  8
LAYER_1
 10
228.8952
 20
194.9681
  0
VERTEX
  8
LAYER_1
 10
224.0807
 20
194.9681
  0
VERTEX
  8
LAYER_1
 10
221.93
 20
194.9681
  0
SEQEND
  0
POLYLINE
  8
LAYER_1
 40
0.1058
 41
0.1058
 66
1
 10
0
 20
0
 30
0
  0
VERTEX
  8
LAYER_1
 10
208.6343
 20
194.9802
  0
VERTEX
  8
LAYER_1
 10
209.1593
 20
204.937
  0
SEQEND
  0
POLYLINE
  8
LAYER_1
 40
0.1058
 41
0.1058
 66
1
 10
0
 20
0
 30
0
  0
VERTEX
  8
LAYER_1
 10
210.5153
 20
194.9681
  0
VERTEX
  8
LAYER_1
 10
211.1513
 20
207.0554
  0
SEQEND
  0
POLYLINE
  8
LAYER_1
 40
0.1058
 41
0.1058
 66
1
 10
0
 20
0
 30
0
  0
VERTEX
  8
LAYER_1
 10
216.1174
 20
194.9681
  0
VERTEX
  8
LAYER_1
 10
217.0334
 20
209.4758
  0
SEQEND
  0
POLYLINE
  8
LAYER_1
 40
0.1058
 41
0.1058
 66
1
 10
0
 20
0
 30
0
  0
VERTEX
  8
LAYER_1
 10
224.0807
 20
194.9681
  0
VERTEX
  8
LAYER_1
 10
223.6167
 20
208.9907
  0
SEQEND
  0
POLYLINE
  8
LAYER_1
 40
0.1058
 41
0.1058
 66
1
 10
0
 20
0
 30
0
  0
VERTEX
  8
LAYER_1
 10
221.93
 20
194.9681
  0
VERTEX
  8
LAYER_1
 10
221.4666
 20
209.4758
  0
SEQEND
  0
POLYLINE
  8
LAYER_1
 40
0.1058
 41
0.1058
 66
1
 10
0
 20
0
 30
0
  0
VERTEX
  8
LAYER_1
 10
228.8952
 20
194.9681
  0
VERTEX
  8
LAYER_1
 10
228.5621
 20
205.3806
  0
SEQEND
  0
POLYLINE
  8
LAYER_1
 40
0.1764
 41
0.1764
 66
1
 10
0
 20
0
 30
0
 70
1
  0
VERTEX
  8
LAYER_1
 10
230.9434
 20
198.6775
 42
-0.06693802986
  0
VERTEX
  8
LAYER_1
 10
230.5683
 20
195.8851
 42
-0.05827512194
  0
VERTEX
  8
LAYER_1
 10
229.64
 20
193.5909
 42
-0.03732429116
  0
VERTEX
  8
LAYER_1
 10
228.7452
 20
192.2096
 42
-0.03931100604
  0
VERTEX
  8
LAYER_1
 10
227.5542
 20
190.8723
 42
-0.04140945745
  0
VERTEX
  8
LAYER_1
 10
226.0423
 20
189.6444
 42
-0.04100038748
  0
VERTEX
  8
LAYER_1
 10
224.3242
 20
188.666
 42
-0.0529122181
  0
VERTEX
  8
LAYER_1
 10
221.8636
 20
187.8228
 42
-0.0355359054
  0
VERTEX
  8
LAYER_1
 10
220.0969
 20
187.549
 42
-0.02078349257
  0
VERTEX
  8
LAYER_1
 10
219.0292
 20
187.5047
 42
-0.04144372132
  0
VERTEX
  8
LAYER_1
 10
216.9203
 20
187.6792
 42
-0.05277005184
  0
VERTEX
  8
LAYER_1
 10
214.3918
 20
188.3827
 42
-0.05829241983
  0
VERTEX
  8
LAYER_1
 10
211.9007
 20
189.7242
 42
-0.04128328234
  0
VERTEX
  8
LAYER_1
 10
210.4047
 20
190.9688
 42
-0.0422281631
  0
VERTEX
  8
LAYER_1
 10
209.1494
 20
192.4305
 42
-0.03731775152
  0
VERTEX
  8
LAYER_1
 10
208.2894
 20
193.8335
 42
-0.03853058421
  0
VERTEX
  8
LAYER_1
 10
207.65
 20
195.3549
 42
-0.08025487168
  0
VERTEX
  8
LAYER_1
 10
207.1143
 20
198.6775
 42
-0.0669557466
  0
VERTEX
  8
LAYER_1
 10
207.4895
 20
201.4696
 42
-0.05828183813
  0
VERTEX
  8
LAYER_1
 10
208.418
 20
203.7636
 42
-0.03732377126
  0
VERTEX
  8
LAYER_1
 10
209.3128
 20
205.1449
 42
-0.03930751828
  0
VERTEX
  8
LAYER_1
 10
210.504
 20
206.482
 42
-0.04140369319
  0
VERTEX
  8
LAYER_1
 10
212.0159
 20
207.7099
 42
-0.04099425823
  0
VERTEX
  8
LAYER_1
 10
213.7342
 20
208.6883
 42
-0.05290608831
  0
VERTEX
  8
LAYER_1
 10
216.1949
 20
209.5315
 42
-0.03553472137
  0
VERTEX
  8
LAYER_1
 10
217.9616
 20
209.8053
 42
-0.02078429314
  0
VERTEX
  8
LAYER_1
 10
219.0292
 20
209.8496
 42
-0.04144366413
  0
VERTEX
  8
LAYER_1
 10
221.1382
 20
209.6751
 42
-0.05277217027
  0
VERTEX
  8
LAYER_1
 10
223.6666
 20
208.9716
 42
-0.05829586807
  0
VERTEX
  8
LAYER_1
 10
226.1576
 20
207.6301
 42
-0.04128499395
  0
VERTEX
  8
LAYER_1
 10
227.6534
 20
206.3856
 42
-0.04222856165
  0
VERTEX
  8
LAYER_1
 10
228.9086
 20
204.9239
 42
-0.03731685464
  0
VERTEX
  8
LAYER_1
 10
229.7685
 20
203.521
 42
-0.03852863596
  0
VERTEX
  8
LAYER_1
 10
230.4077
 20
201.9997
 42
-0.0802492333
  0
SEQEND
  0
POLYLINE
  8
LAYER_1
 40
0.2117
 41
0.2117
 66
1
 10
0
 20
0
 30
0
  0
VERTEX
  8
LAYER_1
 10
219.5256
 20
196.866
  0
VERTEX
  8
LAYER_1
 10
219.5256
 20
191.4674
  0
SEQEND
  0
POLYLINE
  8
LAYER_1
 40
0.05
 41
0.05
 66
1
 10
0
 20
0
 30
0
 70
1
  0
VERTEX
  8
LAYER_1
 10
219.0726
 20
196.5758
  0
VERTEX
  8
LAYER_1
 10
219.5256
 20
198.1621
  0
VERTEX
  8
LAYER_1
 10
219.9797
 20
196.5758
  0
SEQEND
  0
POLYLINE
  8
LAYER_1
 40
0.05
 41
0.05
 66
1
 10
0
 20
0
 30
0
 70
1
  0
VERTEX
  8
LAYER_1
 10
219.0726
 20
191.7576
  0
VERTEX
  8
LAYER_1
 10
219.5256
 20
190.1712
  0
VERTEX
  8
LAYER_1
 10
219.9797
 20
191.7576
  0
SEQEND
  0
POLYLINE
  8
LAYER_1
 40
0.0706
 41
0.0706
 66
1
 10
0
 20
0
 30
0
  0
VERTEX
  8
LAYER_1
 10
210.8881
 20
190.5234
  0
VERTEX
  8
LAYER_1
 10
203.3361
 20
174.9275
  0
SEQEND
  0
POLYLINE
  8
LAYER_1
 40
0.05
 41
0.05
 66
1
 10
0
 20
0
 30
0
 70
1
  0
VERTEX
  8
LAYER_1
 10
203.1463
 20
175.221
  0
VERTEX
  8
LAYER_1
 10
202.9544
 20
174.1406
  0
VERTEX
  8
LAYER_1
 10
203.6961
 20
174.9862
  0
SEQEND
  0
POLYLINE
  8
LAYER_1
 40
0.0706
 41
0.0706
 66
1
 10
0
 20
0
 30
0
  0
VERTEX
  8
LAYER_1
 10
210.8881
 20
190.5234
  0
VERTEX
  8
LAYER_1
 10
191.0647
 20
183.3921
  0
SEQEND
  0
POLYLINE
  8
LAYER_1
 40
0.05
 41
0.05
 66
1
 10
0
 20
0
 30
0
 70
1
  0
VERTEX
  8
LAYER_1
 10
191.1491
 20
183.7257
  0
VERTEX
  8
LAYER_1
 10
190.2044
 20
183.0829
  0
VERTEX
  8
LAYER_1
 10
191.3661
 20
183.1969
  0
SEQEND
  0
POLYLINE
  8
LAYER_1
 40
0.0706
 41
0.0706
 66
1
 10
0
 20
0
 30
0
  0
VERTEX
  8
LAYER_1
 10
210.8881
 20
190.5234
  0
VERTEX
  8
LAYER_1
 10
187.1769
 20
171.208
  0
SEQEND
  0
POLYLINE
  8
LAYER_1
 40
0.05
 41
0.05
 66
1
 10
0
 20
0
 30
0
 70
1
  0
VERTEX
  8
LAYER_1
 10
187.1348
 20
171.549
  0
VERTEX
  8
LAYER_1
 10
186.4813
 20
170.6416
  0
VERTEX
  8
LAYER_1
 10
187.5317
 20
171.1203
  0
SEQEND
  0
POLYLINE
  8
LAYER_1
 40
0.0706
 41
0.0706
 66
1
 10
0
 20
0
 30
0
  0
VERTEX
  8
LAYER_1
 10
210.8881
 20
190.5234
  0
VERTEX
  8
LAYER_1
 10
175.272
 20
180.3421
  0
SEQEND
  0
POLYLINE
  8
LAYER_1
 40
0.05
 41
0.05
 66
1
 10
0
 20
0
 30
0
 70
1
  0
VERTEX
  8
LAYER_1
 10
175.3809
 20
180.6701
  0
VERTEX
  8
LAYER_1
 10
174.3894
 20
180.0912
  0
VERTEX
  8
LAYER_1
 10
175.5566
 20
180.1284
  0
SEQEND
  0
POLYLINE
  8
LAYER_1
 40
0.1058
 41
0.1058
 66
1
 10
0
 20
0
 30
0
  0
VERTEX
  8
LAYER_1
 10
190.4028
 20
187.4702
  0
VERTEX
  8
LAYER_1
 10
190.4063
 20
186.8504
  0
VERTEX
  8
LAYER_1
 10
186.9243
 20
183.0825
  0
SEQEND
  0
POLYLINE
  8
LAYER_1
 40
0.1058
 41
0.1058
 66
1
 10
0
 20
0
 30
0
  0
VERTEX
  8
LAYER_1
 10
189.9636
 20
182.8591
  0
VERTEX
  8
LAYER_1
 10
190.4456
 20
183.2989
  0
SEQEND
  0
POLYLINE
  8
LAYER_1
 40
0.1058
 41
0.1058
 66
1
 10
0
 20
0
 30
0
  0
VERTEX
  8
LAYER_1
 10
189.9636
 20
182.8591
  0
VERTEX
  8
LAYER_1
 10
189.4623
 20
182.9554
  0
VERTEX
  8
LAYER_1
 10
189.3583
 20
185.7172
  0
SEQEND
  0
POLYLINE
  8
LAYER_1
 40
0.1058
 41
0.1058
 66
1
 10
0
 20
0
 30
0
  0
VERTEX
  8
LAYER_1
 10
175.5982
 20
191.7938
  0
VERTEX
  8
LAYER_1
 10
185.8126
 20
190.7746
  0
VERTEX
  8
LAYER_1
 10
185.824
 20
190.0322
  0
SEQEND
  0
INSERT
  8
LAYER_1
  2
AIGNBL0101002F
 10
0
 20
0
 30
0
  0
POLYLINE
  8
LAYER_1
 40
0.1058
 41
0.1058
 66
1
 10
0
 20
0
 30
0
  0
VERTEX
  8
LAYER_1
 10
184.5648
 20
191.0107
  0
VERTEX
  8
LAYER_1
 10
184.5648
 20
191.0113
  0
VERTEX
  8
LAYER_1
 10
175.7274
 20
191.892
  0
VERTEX
  8
LAYER_1
 10
176.4654
 20
211.6629
  0
SEQEND
  0
INSERT
  8
LAYER_1
  2
AIGNBL01010030
 10
0
 20
0
 30
0
  0
POLYLINE
  8
LAYER_1
 40
0.1058
 41
0.1058
 66
1
 10
0
 20
0
 30
0
  0
VERTEX
  8
LAYER_1
 10
174.9003
 20
212.5069
  0
VERTEX
  8
LAYER_1
 10
173.7816
 20
180.1458
  0
VERTEX
  8
LAYER_1
 10
175.1094
 20
180.026
  0
VERTEX
  8
LAYER_1
 10
175.2906
 20
180.2226
  0
VERTEX
  8
LAYER_1
 10
175.6806
 20
190.6504
  0
SEQEND
  0
POLYLINE
  8
LAYER_1
 40
0.1058
 41
0.1058
 66
1
 10
0
 20
0
 30
0
  0
VERTEX
  8
LAYER_1
 10
203.6461
 20
174.0755
  0
VERTEX
  8
LAYER_1
 10
203.7619
 20
174.3051
  0
VERTEX
  8
LAYER_1
 10
201.7007
 20
211.2543
  0
SEQEND
  0
POLYLINE
  8
LAYER_1
 40
0.1058
 41
0.1058
 66
1
 10
0
 20
0
 30
0
  0
VERTEX
  8
LAYER_1
 10
200.0477
 20
210.3963
  0
VERTEX
  8
LAYER_1
 10
202.1651
 20
174.2152
  0
VERTEX
  8
LAYER_1
 10
203.6458
 20
174.0755
  0
VERTEX
  8
LAYER_1
 10
201.5712
 20
211.1435
  0
SEQEND
  0
POLYLINE
  8
LAYER_1
 40
0.1058
 41
0.1058
 66
1
 10
0
 20
0
 30
0
  0
VERTEX
  8
LAYER_1
 10
186.155
 20
170.3066
  0
VERTEX
  8
LAYER_1
 10
185.5694
 20
170.3953
  0
VERTEX
  8
LAYER_1
 10
186.0779
 20
209.6504
  0
SEQEND
  0
POLYLINE
  8
LAYER_1
 40
0.1058
 41
0.1058
 66
1
 10
0
 20
0
 30
0
  0
VERTEX
  8
LAYER_1
 10
187.3112
 20
209.5486
  0
VERTEX
  8
LAYER_1
 10
186.7469
 20
170.9119
  0
VERTEX
  8
LAYER_1
 10
186.155
 20
170.3066
  0
VERTEX
  8
LAYER_1
 10
186.6966
 20
209.5965
  0
SEQEND
  0
INSERT
  8
LAYER_1
  2
AIGNBL01010031
 10
0
 20
0
 30
0
  0
POLYLINE
  8
LAYER_1
 40
0.1058
 41
0.1058
 66
1
 10
0
 20
0
 30
0
  0
VERTEX
  8
LAYER_1
 10
201.423
 20
186.9109
  0
VERTEX
  8
LAYER_1
 10
191.7699
 20
187.9064
  0
VERTEX
  8
LAYER_1
 10
191.0719
 20
187.9784
  0
SEQEND
  0
INSERT
  8
LAYER_1
  2
AIGNBL01010032
 10
0
 20
0
 30
0
  0
POLYLINE
  8
LAYER_1
 40
0.1058
 41
0.1058
 66
1
 10
0
 20
0
 30
0
  0
VERTEX
  8
LAYER_1
 10
185.8329
 20
190.7625
  0
VERTEX
  8
LAYER_1
 10
185.8133
 20
190.7746
  0
VERTEX
  8
LAYER_1
 10
175.5982
 20
191.7952
  0
SEQEND
  0
POLYLINE
  8
LAYER_1
 40
0.1058
 41
0.1058
 66
1
 10
0
 20
0
 30
0
  0
VERTEX
  8
LAYER_1
 10
190.3987
 20
188.0474
  0
VERTEX
  8
LAYER_1
 10
190.7598
 20
188.0101
  0
VERTEX
  8
LAYER_1
 10
201.423
 20
186.9087
  0
SEQEND
  0
INSERT
  8
LAYER_1
  2
AIGNBL01010033
 10
0
 20
0
 30
0
  0
POLYLINE
  8
LAYER_1
 40
0.1058
 41
0.1058
 66
1
 10
0
 20
0
 30
0
  0
VERTEX
  8
LAYER_1
 10
201.4154
 20
187.0325
  0
VERTEX
  8
LAYER_1
 10
190.8407
 20
188.1222
  0
VERTEX
  8
LAYER_1
 10
201.4154
 20
187.0335
  0
SEQEND
  0
POLYLINE
  8
LAYER_1
 40
0.1058
 41
0.1058
 66
1
 10
0
 20
0
 30
0
  0
VERTEX
  8
LAYER_1
 10
190.0831
 20
188.1022
  0
VERTEX
  8
LAYER_1
 10
186.9498
 20
184.7868
  0
SEQEND
  0
POLYLINE
  8
LAYER_1
 40
0.1058
 41
0.1058
 66
1
 10
0
 20
0
 30
0
  0
VERTEX
  8
LAYER_1
 10
201.4943
 20
185.686
  0
VERTEX
  8
LAYER_1
 10
190.4063
 20
186.8504
  0
SEQEND
  0
INSERT
  8
LAYER_1
  2
AIGNBL01010034
 10
0
 20
0
 30
0
  0
POLYLINE
  8
LAYER_1
 40
0.1058
 41
0.1058
 66
1
 10
0
 20
0
 30
0
  0
VERTEX
  8
LAYER_1
 10
189.5347
 20
210.3963
  0
VERTEX
  8
LAYER_1
 10
189.3569
 20
215.694
  0
SEQEND
  0
POLYLINE
  8
LAYER_1
 40
0.1058
 41
0.1058
 66
1
 10
0
 20
0
 30
0
  0
VERTEX
  8
LAYER_1
 10
190.2761
 20
188.2669
  0
VERTEX
  8
LAYER_1
 10
189.5678
 20
209.4292
  0
SEQEND
  0
POLYLINE
  8
LAYER_1
 40
0.1058
 41
0.1058
 66
1
 10
0
 20
0
 30
0
  0
VERTEX
  8
LAYER_1
 10
190.4077
 20
184.3591
  0
VERTEX
  8
LAYER_1
 10
190.3271
 20
186.764
  0
SEQEND
  0
POLYLINE
  8
LAYER_1
 40
0.1058
 41
0.1058
 66
1
 10
0
 20
0
 30
0
  0
VERTEX
  8
LAYER_1
 10
174.9247
 20
213.2211
  0
VERTEX
  8
LAYER_1
 10
174.9282
 20
213.3207
  0
SEQEND
  0
INSERT
  8
LAYER_1
  2
AIGNBL01010035
 10
0
 20
0
 30
0
  0
POLYLINE
  8
LAYER_1
 40
0.1058
 41
0.1058
 66
1
 10
0
 20
0
 30
0
  0
VERTEX
  8
LAYER_1
 10
190.0866
 20
187.7155
  0
VERTEX
  8
LAYER_1
 10
190.0866
 20
187.7148
  0
SEQEND
  0
POLYLINE
  8
LAYER_1
 40
0.1058
 41
0.1058
 66
1
 10
0
 20
0
 30
0
  0
VERTEX
  8
LAYER_1
 10
185.8347
 20
190.8846
  0
VERTEX
  8
LAYER_1
 10
175.7267
 20
191.8904
  0
SEQEND
  0
POLYLINE
  8
LAYER_1
 40
0.1058
 41
0.1058
 66
1
 10
0
 20
0
 30
0
  0
VERTEX
  8
LAYER_1
 10
189.1674
 20
194.0188
  0
VERTEX
  8
LAYER_1
 10
187.0546
 20
192.0139
  0
SEQEND
  0
POLYLINE
  8
LAYER_1
 40
0.1058
 41
0.1058
 66
1
 10
0
 20
0
 30
0
  0
VERTEX
  8
LAYER_1
 10
187.0497
 20
191.6799
  0
VERTEX
  8
LAYER_1
 10
189.4685
 20
193.9866
  0
SEQEND
  0
POLYLINE
  8
LAYER_1
 40
0.1058
 41
0.1058
 66
1
 10
0
 20
0
 30
0
  0
VERTEX
  8
LAYER_1
 10
187.0546
 20
192.0152
  0
VERTEX
  8
LAYER_1
 10
189.1674
 20
194.0224
  0
SEQEND
  0
POLYLINE
  8
LAYER_1
 40
0.1058
 41
0.1058
 66
1
 10
0
 20
0
 30
0
  0
VERTEX
  8
LAYER_1
 10
189.4685
 20
193.9899
  0
VERTEX
  8
LAYER_1
 10
187.0497
 20
191.6808
  0
SEQEND
  0
POLYLINE
  8
LAYER_1
 40
0.1058
 41
0.1058
 66
1
 10
0
 20
0
 30
0
  0
VERTEX
  8
LAYER_1
 10
187.0335
 20
190.5095
  0
VERTEX
  8
LAYER_1
 10
189.5037
 20
192.9098
  0
SEQEND
  0
POLYLINE
  8
LAYER_1
 40
0.1058
 41
0.1058
 66
1
 10
0
 20
0
 30
0
  0
VERTEX
  8
LAYER_1
 10
175.5042
 20
190.6686
  0
VERTEX
  8
LAYER_1
 10
185.8188
 20
189.6217
  0
SEQEND
  0
INSERT
  8
LAYER_1
  2
AIGNBL01010036
 10
0
 20
0
 30
0
  0
POLYLINE
  8
LAYER_1
 40
0.1058
 41
0.1058
 66
1
 10
0
 20
0
 30
0
  0
VERTEX
  8
LAYER_1
 10
176.3076
 20
212.3733
  0
VERTEX
  8
LAYER_1
 10
176.3823
 20
214.4052
  0
SEQEND
  0
POLYLINE
  8
LAYER_1
 40
0.1058
 41
0.1058
 66
1
 10
0
 20
0
 30
0
  0
VERTEX
  8
LAYER_1
 10
175.1094
 20
180.026
  0
VERTEX
  8
LAYER_1
 10
176.2848
 20
211.7413
  0
SEQEND
  0
POLYLINE
  8
LAYER_1
 40
0.1058
 41
0.1058
 66
1
 10
0
 20
0
 30
0
  0
VERTEX
  8
LAYER_1
 10
176.4895
 20
212.2913
  0
VERTEX
  8
LAYER_1
 10
176.5746
 20
214.5557
  0
SEQEND
  0
POLYLINE
  8
LAYER_1
 40
0.1058
 41
0.1058
 66
1
 10
0
 20
0
 30
0
  0
VERTEX
  8
LAYER_1
 10
188.477
 20
210.4505
  0
VERTEX
  8
LAYER_1
 10
188.2869
 20
215.7839
  0
SEQEND
  0
POLYLINE
  8
LAYER_1
 40
0.1058
 41
0.1058
 66
1
 10
0
 20
0
 30
0
  0
VERTEX
  8
LAYER_1
 10
189.0662
 20
193.9256
  0
VERTEX
  8
LAYER_1
 10
188.5115
 20
209.4739
  0
SEQEND
  0
POLYLINE
  8
LAYER_1
 40
0.1058
 41
0.1058
 66
1
 10
0
 20
0
 30
0
  0
VERTEX
  8
LAYER_1
 10
189.2453
 20
188.9096
  0
VERTEX
  8
LAYER_1
 10
189.1158
 20
192.5333
  0
SEQEND
  0
POLYLINE
  8
LAYER_1
 40
0.1058
 41
0.1058
 66
1
 10
0
 20
0
 30
0
  0
VERTEX
  8
LAYER_1
 10
189.3046
 20
187.2781
  0
VERTEX
  8
LAYER_1
 10
189.2984
 20
187.4104
  0
SEQEND
  0
POLYLINE
  8
LAYER_1
 40
0.1058
 41
0.1058
 66
1
 10
0
 20
0
 30
0
  0
VERTEX
  8
LAYER_1
 10
189.7634
 20
188.5864
  0
VERTEX
  8
LAYER_1
 10
189.042
 20
209.4487
  0
SEQEND
  0
POLYLINE
  8
LAYER_1
 40
0.1058
 41
0.1058
 66
1
 10
0
 20
0
 30
0
  0
VERTEX
  8
LAYER_1
 10
189.0079
 20
210.4202
  0
VERTEX
  8
LAYER_1
 10
188.8236
 20
215.7419
  0
SEQEND
  0
POLYLINE
  8
LAYER_1
 40
0.1058
 41
0.1058
 66
1
 10
0
 20
0
 30
0
  0
VERTEX
  8
LAYER_1
 10
190.4435
 20
183.2972
  0
VERTEX
  8
LAYER_1
 10
190.4077
 20
184.3591
  0
SEQEND
  0
POLYLINE
  8
LAYER_1
 40
0.1058
 41
0.1058
 66
1
 10
0
 20
0
 30
0
  0
VERTEX
  8
LAYER_1
 10
189.9619
 20
182.8591
  0
VERTEX
  8
LAYER_1
 10
189.8451
 20
186.2419
  0
SEQEND
  0
POLYLINE
  8
LAYER_1
 40
0.1058
 41
0.1058
 66
1
 10
0
 20
0
 30
0
  0
VERTEX
  8
LAYER_1
 10
193.2471
 20
215.6673
  0
VERTEX
  8
LAYER_1
 10
193.2471
 20
215.2161
  0
VERTEX
  8
LAYER_1
 10
192.8899
 20
215.2256
  0
VERTEX
  8
LAYER_1
 10
192.8881
 20
215.6768
  0
VERTEX
  8
LAYER_1
 10
193.2471
 20
215.6673
  0
VERTEX
  8
LAYER_1
 10
194.209
 20
215.7525
  0
VERTEX
  8
LAYER_1
 10
194.209
 20
215.303
  0
VERTEX
  8
LAYER_1
 10
193.2471
 20
215.2161
  0
SEQEND
  0
INSERT
  8
LAYER_1
  2
AIGNBL01010037
 10
0
 20
0
 30
0
  0
POLYLINE
  8
LAYER_1
 40
0.1058
 41
0.1058
 66
1
 10
0
 20
0
 30
0
 70
1
  0
VERTEX
  8
LAYER_1
 10
175.8356
 20
213.8975
  0
VERTEX
  8
LAYER_1
 10
176.0313
 20
213.9649
  0
VERTEX
  8
LAYER_1
 10
176.0454
 20
213.4955
  0
VERTEX
  8
LAYER_1
 10
175.8497
 20
213.4278
  0
SEQEND
  0
POLYLINE
  8
LAYER_1
 40
0.1058
 41
0.1058
 66
1
 10
0
 20
0
 30
0
  0
VERTEX
  8
LAYER_1
 10
199.8552
 20
213.1832
  0
VERTEX
  8
LAYER_1
 10
199.851
 20
212.7059
 42
-0.1012886285
  0
VERTEX
  8
LAYER_1
 10
200.0939
 20
212.2954
  0
SEQEND
  0
POLYLINE
  8
LAYER_1
 40
0.1058
 41
0.1058
 66
1
 10
0
 20
0
 30
0
  0
VERTEX
  8
LAYER_1
 10
174.1144
 20
214.0741
  0
VERTEX
  8
LAYER_1
 10
174.1296
 20
213.6152
  0
VERTEX
  8
LAYER_1
 10
174.1303
 20
213.6082
  0
VERTEX
  8
LAYER_1
 10
174.1303
 20
213.6064
  0
VERTEX
  8
LAYER_1
 10
174.1313
 20
213.5883
  0
VERTEX
  8
LAYER_1
 10
174.1313
 20
213.5859
  0
VERTEX
  8
LAYER_1
 10
174.132
 20
213.5692
  0
VERTEX
  8
LAYER_1
 10
174.133
 20
213.5651
  0
VERTEX
  8
LAYER_1
 10
174.1344
 20
213.5498
  0
VERTEX
  8
LAYER_1
 10
174.1358
 20
213.5449
  0
VERTEX
  8
LAYER_1
 10
174.1372
 20
213.5294
  0
VERTEX
  8
LAYER_1
 10
174.1382
 20
213.5246
  0
VERTEX
  8
LAYER_1
 10
174.1406
 20
213.5101
  0
VERTEX
  8
LAYER_1
 10
174.1413
 20
213.5036
  0
VERTEX
  8
LAYER_1
 10
174.1437
 20
213.4896
  0
VERTEX
  8
LAYER_1
 10
174.1454
 20
213.4829
  0
VERTEX
  8
LAYER_1
 10
174.1479
 20
213.4703
  0
VERTEX
  8
LAYER_1
 10
174.1489
 20
213.4629
  0
VERTEX
  8
LAYER_1
 10
174.1516
 20
213.4504
  0
VERTEX
  8
LAYER_1
 10
174.1541
 20
213.4412
  0
VERTEX
  8
LAYER_1
 10
174.1568
 20
213.4306
  0
VERTEX
  8
LAYER_1
 10
174.1599
 20
213.4214
 42
0.121690676
  0
VERTEX
  8
LAYER_1
 10
174.4527
 20
212.9119
  0
VERTEX
  8
LAYER_1
 10
174.4676
 20
212.8943
  0
VERTEX
  8
LAYER_1
 10
174.472
 20
212.8897
  0
VERTEX
  8
LAYER_1
 10
174.4865
 20
212.873
  0
VERTEX
  8
LAYER_1
 10
174.4917
 20
212.8681
  0
VERTEX
  8
LAYER_1
 10
174.5058
 20
212.8514
  0
VERTEX
  8
LAYER_1
 10
174.5113
 20
212.8468
 42
0.04234479481
  0
VERTEX
  8
LAYER_1
 10
174.8999
 20
212.5069
  0
VERTEX
  8
LAYER_1
 10
174.9072
 20
212.5019
  0
VERTEX
  8
LAYER_1
 10
175.0846
 20
212.3776
  0
VERTEX
  8
LAYER_1
 10
175.0932
 20
212.3714
 42
0.03900120641
  0
VERTEX
  8
LAYER_1
 10
176.0509
 20
211.8456
  0
VERTEX
  8
LAYER_1
 10
176.2776
 20
211.7435
  0
VERTEX
  8
LAYER_1
 10
176.2848
 20
211.7406
  0
VERTEX
  8
LAYER_1
 10
176.4654
 20
211.6629
  0
VERTEX
  8
LAYER_1
 10
176.4771
 20
211.6589
 42
0.03120105329
  0
VERTEX
  8
LAYER_1
 10
178.6819
 20
210.9184
  0
VERTEX
  8
LAYER_1
 10
178.8177
 20
210.8815
 42
0.0155662949
  0
VERTEX
  8
LAYER_1
 10
180.7731
 20
210.4202
  0
VERTEX
  8
LAYER_1
 10
180.8076
 20
210.413
  0
VERTEX
  8
LAYER_1
 10
180.8489
 20
210.4047
  0
VERTEX
  8
LAYER_1
 10
181.9341
 20
210.2006
  0
VERTEX
  8
LAYER_1
 10
182.9601
 20
210.032
 42
0.009168763997
  0
VERTEX
  8
LAYER_1
 10
184.8121
 20
209.7827
  0
VERTEX
  8
LAYER_1
 10
185.5225
 20
209.7055
  0
VERTEX
  8
LAYER_1
 10
185.6855
 20
209.6883
  0
VERTEX
  8
LAYER_1
 10
185.6962
 20
209.6869
  0
VERTEX
  8
LAYER_1
 10
186.0445
 20
209.653
  0
VERTEX
  8
LAYER_1
 10
186.0779
 20
209.6508
  0
VERTEX
  8
LAYER_1
 10
186.6966
 20
209.5962
  0
VERTEX
  8
LAYER_1
 10
186.7497
 20
209.5917
  0
VERTEX
  8
LAYER_1
 10
187.285
 20
209.5503
  0
VERTEX
  8
LAYER_1
 10
187.3112
 20
209.5486
  0
VERTEX
  8
LAYER_1
 10
188.7296
 20
209.4637
  0
VERTEX
  8
LAYER_1
 10
188.7764
 20
209.4618
  0
VERTEX
  8
LAYER_1
 10
188.9111
 20
209.4546
  0
VERTEX
  8
LAYER_1
 10
189.0407
 20
209.4487
  0
VERTEX
  8
LAYER_1
 10
189.4544
 20
209.4323
  0
VERTEX
  8
LAYER_1
 10
189.5678
 20
209.4292
  0
VERTEX
  8
LAYER_1
 10
189.8172
 20
209.4215
  0
VERTEX
  8
LAYER_1
 10
190.6716
 20
209.4031
  0
VERTEX
  8
LAYER_1
 10
191.2962
 20
209.3976
  0
VERTEX
  8
LAYER_1
 10
191.3437
 20
209.3976
  0
VERTEX
  8
LAYER_1
 10
191.3854
 20
209.3976
 42
0.01130671423
  0
VERTEX
  8
LAYER_1
 10
193.6702
 20
209.4463
 42
0.01822805132
  0
VERTEX
  8
LAYER_1
 10
196.4366
 20
209.6652
 42
0.02484078569
  0
VERTEX
  8
LAYER_1
 10
198.7531
 20
210.0454
  0
VERTEX
  8
LAYER_1
 10
198.7544
 20
210.0459
 42
0.02623662115
  0
VERTEX
  8
LAYER_1
 10
200.036
 20
210.3927
  0
VERTEX
  8
LAYER_1
 10
200.0477
 20
210.3966
  0
VERTEX
  8
LAYER_1
 10
200.1504
 20
210.4316
  0
VERTEX
  8
LAYER_1
 10
200.1849
 20
210.4437
  0
VERTEX
  8
LAYER_1
 10
200.1955
 20
210.4469
 42
0.07132924189
  0
VERTEX
  8
LAYER_1
 10
201.4683
 20
211.0653
 42
0.009624899074
  0
VERTEX
  8
LAYER_1
 10
201.566
 20
211.1394
  0
VERTEX
  8
LAYER_1
 10
201.5712
 20
211.1435
  0
VERTEX
  8
LAYER_1
 10
201.6966
 20
211.251
  0
VERTEX
  8
LAYER_1
 10
201.7007
 20
211.2543
 42
0.08162676643
  0
VERTEX
  8
LAYER_1
 10
201.9729
 20
211.5936
 42
0.1274497163
  0
VERTEX
  8
LAYER_1
 10
202.0852
 20
211.9969
  0
VERTEX
  8
LAYER_1
 10
202.0921
 20
212.4813
  0
SEQEND
  0
POLYLINE
  8
LAYER_1
 40
0.1058
 41
0.1058
 66
1
 10
0
 20
0
 30
0
 70
1
  0
VERTEX
  8
LAYER_1
 10
184.4552
 20
210.332
 42
-0.01006075133
  0
VERTEX
  8
LAYER_1
 10
182.3847
 20
210.6254
  0
VERTEX
  8
LAYER_1
 10
181.7267
 20
210.738
  0
VERTEX
  8
LAYER_1
 10
181.6981
 20
210.743
 42
-0.01885677152
  0
VERTEX
  8
LAYER_1
 10
179.0557
 20
211.3122
  0
VERTEX
  8
LAYER_1
 10
179.0168
 20
211.3222
  0
VERTEX
  8
LAYER_1
 10
178.9858
 20
211.3296
  0
VERTEX
  8
LAYER_1
 10
178.9465
 20
211.3402
  0
VERTEX
  8
LAYER_1
 10
178.9169
 20
211.3478
  0
VERTEX
  8
LAYER_1
 10
178.5317
 20
211.4522
  0
VERTEX
  8
LAYER_1
 10
178.5128
 20
211.4572
  0
VERTEX
  8
LAYER_1
 10
178.4642
 20
211.4713
  0
VERTEX
  8
LAYER_1
 10
178.447
 20
211.4767
  0
VERTEX
  8
LAYER_1
 10
178.396
 20
211.4906
  0
VERTEX
  8
LAYER_1
 10
178.3815
 20
211.4942
  0
VERTEX
  8
LAYER_1
 10
178.3295
 20
211.5096
  0
VERTEX
  8
LAYER_1
 10
178.3161
 20
211.5128
  0
VERTEX
  8
LAYER_1
 10
178.2637
 20
211.528
  0
VERTEX
  8
LAYER_1
 10
178.252
 20
211.5313
  0
VERTEX
  8
LAYER_1
 10
178.1972
 20
211.5476
  0
VERTEX
  8
LAYER_1
 10
178.1879
 20
211.5504
  0
VERTEX
  8
LAYER_1
 10
178.1318
 20
211.5674
  0
VERTEX
  8
LAYER_1
 10
178.1249
 20
211.5695
  0
VERTEX
  8
LAYER_1
 10
178.0667
 20
211.5866
  0
VERTEX
  8
LAYER_1
 10
178.0618
 20
211.5885
  0
VERTEX
  8
LAYER_1
 10
178.0015
 20
211.6064
  0
VERTEX
  8
LAYER_1
 10
177.9981
 20
211.6072
  0
VERTEX
  8
LAYER_1
 10
177.9368
 20
211.625
  0
VERTEX
  8
LAYER_1
 10
177.9364
 20
211.6258
  0
VERTEX
  8
LAYER_1
 10
177.8751
 20
211.6453
  0
VERTEX
  8
LAYER_1
 10
177.8737
 20
211.6453
  0
VERTEX
  8
LAYER_1
 10
177.8138
 20
211.6644
  0
VERTEX
  8
LAYER_1
 10
177.8096
 20
211.6658
  0
VERTEX
  8
LAYER_1
 10
177.7528
 20
211.6827
  0
VERTEX
  8
LAYER_1
 10
177.7469
 20
211.6854
  0
VERTEX
  8
LAYER_1
 10
177.6925
 20
211.7022
  0
VERTEX
  8
LAYER_1
 10
177.6842
 20
211.7049
  0
VERTEX
  8
LAYER_1
 10
177.6333
 20
211.7218
  0
VERTEX
  8
LAYER_1
 10
177.6222
 20
211.7249
  0
VERTEX
  8
LAYER_1
 10
176.8023
 20
212.0124
  0
VERTEX
  8
LAYER_1
 10
176.7978
 20
212.0141
  0
VERTEX
  8
LAYER_1
 10
176.7479
 20
212.0331
  0
VERTEX
  8
LAYER_1
 10
176.7465
 20
212.0343
  0
VERTEX
  8
LAYER_1
 10
176.6948
 20
212.0544
  0
VERTEX
  8
LAYER_1
 10
176.6931
 20
212.0544
  0
VERTEX
  8
LAYER_1
 10
176.6445
 20
212.073
  0
VERTEX
  8
LAYER_1
 10
176.6383
 20
212.0756
  0
VERTEX
  8
LAYER_1
 10
176.484
 20
212.1385
  0
VERTEX
  8
LAYER_1
 10
176.4805
 20
212.1393
  0
VERTEX
  8
LAYER_1
 10
176.3327
 20
212.2003
  0
VERTEX
  8
LAYER_1
 10
176.3279
 20
212.2031
  0
VERTEX
  8
LAYER_1
 10
176.3017
 20
212.215
  0
VERTEX
  8
LAYER_1
 10
176.2783
 20
212.2243
  0
VERTEX
  8
LAYER_1
 10
176.0358
 20
212.3326
  0
VERTEX
  8
LAYER_1
 10
175.9924
 20
212.3524
  0
VERTEX
  8
LAYER_1
 10
175.9886
 20
212.3538
 42
-0.01845210582
  0
VERTEX
  8
LAYER_1
 10
175.4721
 20
212.6154
  0
VERTEX
  8
LAYER_1
 10
175.4711
 20
212.616
  0
VERTEX
  8
LAYER_1
 10
175.4336
 20
212.6366
  0
VERTEX
  8
LAYER_1
 10
175.4332
 20
212.6366
  0
VERTEX
  8
LAYER_1
 10
175.3964
 20
212.6575
  0
VERTEX
  8
LAYER_1
 10
175.3939
 20
212.6582
  0
VERTEX
  8
LAYER_1
 10
175.1049
 20
212.8337
  0
VERTEX
  8
LAYER_1
 10
175.1001
 20
212.8375
  0
VERTEX
  8
LAYER_1
 10
174.9165
 20
212.9636
  0
VERTEX
  8
LAYER_1
 10
174.913
 20
212.9663
  0
VERTEX
  8
LAYER_1
 10
174.8538
 20
213.0092
  0
VERTEX
  8
LAYER_1
 10
174.8503
 20
213.0115
  0
VERTEX
  8
LAYER_1
 10
174.8248
 20
213.0313
  0
VERTEX
  8
LAYER_1
 10
174.8231
 20
213.0326
  0
VERTEX
  8
LAYER_1
 10
174.7966
 20
213.053
  0
VERTEX
  8
LAYER_1
 10
174.7962
 20
213.0538
  0
VERTEX
  8
LAYER_1
 10
174.77
 20
213.0742
  0
VERTEX
  8
LAYER_1
 10
174.7697
 20
213.0748
  0
VERTEX
  8
LAYER_1
 10
174.7435
 20
213.0953
  0
VERTEX
  8
LAYER_1
 10
174.7428
 20
213.0969
  0
VERTEX
  8
LAYER_1
 10
174.7187
 20
213.1169
  0
VERTEX
  8
LAYER_1
 10
174.7156
 20
213.1191
  0
VERTEX
  8
LAYER_1
 10
174.6932
 20
213.1384
  0
VERTEX
  8
LAYER_1
 10
174.6901
 20
213.1407
  0
VERTEX
  8
LAYER_1
 10
174.5926
 20
213.2275
  0
VERTEX
  8
LAYER_1
 10
174.5778
 20
213.2414
 42
-0.04674273399
  0
VERTEX
  8
LAYER_1
 10
174.3397
 20
213.506
  0
VERTEX
  8
LAYER_1
 10
174.3322
 20
213.517
  0
VERTEX
  8
LAYER_1
 10
174.3242
 20
213.5272
  0
VERTEX
  8
LAYER_1
 10
174.317
 20
213.5386
  0
VERTEX
  8
LAYER_1
 10
174.3094
 20
213.5486
  0
VERTEX
  8
LAYER_1
 10
174.3025
 20
213.5589
  0
VERTEX
  8
LAYER_1
 10
174.295
 20
213.5697
  0
VERTEX
  8
LAYER_1
 10
174.2881
 20
213.5797
  0
VERTEX
  8
LAYER_1
 10
174.2815
 20
213.5911
  0
VERTEX
  8
LAYER_1
 10
174.2757
 20
213.6013
  0
VERTEX
  8
LAYER_1
 10
174.2684
 20
213.6118
  0
VERTEX
  8
LAYER_1
 10
174.2619
 20
213.6212
  0
VERTEX
  8
LAYER_1
 10
174.256
 20
213.6331
  0
VERTEX
  8
LAYER_1
 10
174.2505
 20
213.6426
  0
VERTEX
  8
LAYER_1
 10
174.2433
 20
213.6538
  0
VERTEX
  8
LAYER_1
 10
174.2378
 20
213.6641
  0
VERTEX
  8
LAYER_1
 10
174.2319
 20
213.6746
  0
VERTEX
  8
LAYER_1
 10
174.1561
 20
213.8491
  0
VERTEX
  8
LAYER_1
 10
174.153
 20
213.8605
  0
VERTEX
  8
LAYER_1
 10
174.1499
 20
213.8705
  0
VERTEX
  8
LAYER_1
 10
174.1472
 20
213.8801
  0
VERTEX
  8
LAYER_1
 10
174.1437
 20
213.8912
  0
VERTEX
  8
LAYER_1
 10
174.1413
 20
213.9006
  0
VERTEX
  8
LAYER_1
 10
174.1382
 20
213.912
  0
VERTEX
  8
LAYER_1
 10
174.1358
 20
213.9204
  0
VERTEX
  8
LAYER_1
 10
174.1344
 20
213.9318
  0
VERTEX
  8
LAYER_1
 10
174.1313
 20
213.9408
  0
VERTEX
  8
LAYER_1
 10
174.1296
 20
213.9521
  0
VERTEX
  8
LAYER_1
 10
174.1282
 20
213.9611
  0
VERTEX
  8
LAYER_1
 10
174.1255
 20
213.9725
  0
VERTEX
  8
LAYER_1
 10
174.1241
 20
213.9811
  0
VERTEX
  8
LAYER_1
 10
174.122
 20
213.9931
  0
VERTEX
  8
LAYER_1
 10
174.1206
 20
214.0016
  0
VERTEX
  8
LAYER_1
 10
174.1193
 20
214.0136
  0
VERTEX
  8
LAYER_1
 10
174.1189
 20
214.0209
  0
VERTEX
  8
LAYER_1
 10
174.1168
 20
214.034
  0
VERTEX
  8
LAYER_1
 10
174.1168
 20
214.0403
  0
VERTEX
  8
LAYER_1
 10
174.1158
 20
214.0545
  0
VERTEX
  8
LAYER_1
 10
174.1151
 20
214.0601
  0
VERTEX
  8
LAYER_1
 10
174.1144
 20
214.0741
  0
VERTEX
  8
LAYER_1
 10
174.1144
 20
214.0806
  0
VERTEX
  8
LAYER_1
 10
174.1134
 20
214.0946
  0
VERTEX
  8
LAYER_1
 10
174.1134
 20
214.0991
  0
VERTEX
  8
LAYER_1
 10
174.1134
 20
214.1146
  0
VERTEX
  8
LAYER_1
 10
174.1358
 20
214.2918
  0
VERTEX
  8
LAYER_1
 10
174.1358
 20
214.2922
  0
VERTEX
  8
LAYER_1
 10
174.1406
 20
214.3103
  0
VERTEX
  8
LAYER_1
 10
174.1406
 20
214.3122
  0
VERTEX
  8
LAYER_1
 10
174.1454
 20
214.3294
  0
VERTEX
  8
LAYER_1
 10
174.1461
 20
214.332
  0
VERTEX
  8
LAYER_1
 10
174.1513
 20
214.3482
  0
VERTEX
  8
LAYER_1
 10
174.1516
 20
214.3504
  0
VERTEX
  8
LAYER_1
 10
174.1568
 20
214.3671
  0
VERTEX
  8
LAYER_1
 10
174.1592
 20
214.3699
 42
-0.1381296335
  0
VERTEX
  8
LAYER_1
 10
174.5525
 20
214.902
 42
-0.04125230087
  0
VERTEX
  8
LAYER_1
 10
174.9177
 20
215.163
 42
-0.03211442029
  0
VERTEX
  8
LAYER_1
 10
175.4473
 20
215.4355
 42
-0.03496010173
  0
VERTEX
  8
LAYER_1
 10
176.5229
 20
215.8175
  0
VERTEX
  8
LAYER_1
 10
176.545
 20
215.8239
  0
VERTEX
  8
LAYER_1
 10
176.5694
 20
215.8304
  0
VERTEX
  8
LAYER_1
 10
176.5915
 20
215.8373
  0
VERTEX
  8
LAYER_1
 10
176.6156
 20
215.844
 42
-0.02982698918
  0
VERTEX
  8
LAYER_1
 10
178.6978
 20
216.2822
 42
-0.01313440131
  0
VERTEX
  8
LAYER_1
 10
180.1633
 20
216.4702
  0
VERTEX
  8
LAYER_1
 10
180.441
 20
216.4986
 42
-0.02567495125
  0
VERTEX
  8
LAYER_1
 10
185.1305
 20
216.69
  0
VERTEX
  8
LAYER_1
 10
185.2452
 20
216.69
  0
VERTEX
  8
LAYER_1
 10
185.2869
 20
216.6893
  0
VERTEX
  8
LAYER_1
 10
185.5597
 20
216.6855
  0
VERTEX
  8
LAYER_1
 10
185.5866
 20
216.6855
 42
-0.0410209085
  0
VERTEX
  8
LAYER_1
 10
194.5735
 20
215.8463
 42
-0.02676556387
  0
VERTEX
  8
LAYER_1
 10
198.0332
 20
215.0482
 42
-0.01109709931
  0
VERTEX
  8
LAYER_1
 10
198.9384
 20
214.7573
 42
-0.0470814026
  0
VERTEX
  8
LAYER_1
 10
200.8544
 20
213.9184
 42
-0.004850254391
  0
VERTEX
  8
LAYER_1
 10
200.9752
 20
213.8464
 42
-0.04238689875
  0
VERTEX
  8
LAYER_1
 10
201.547
 20
213.4395
 42
-0.1028931318
  0
VERTEX
  8
LAYER_1
 10
202.019
 20
212.8488
 42
-0.1557884394
  0
VERTEX
  8
LAYER_1
 10
202.0767
 20
212.3347
 42
-0.05065870206
  0
VERTEX
  8
LAYER_1
 10
202.0197
 20
212.1621
 42
-0.1346751231
  0
VERTEX
  8
LAYER_1
 10
201.579
 20
211.6272
 42
-0.02967797803
  0
VERTEX
  8
LAYER_1
 10
201.2187
 20
211.3976
  0
VERTEX
  8
LAYER_1
 10
201.2025
 20
211.3888
 42
-0.04906353635
  0
VERTEX
  8
LAYER_1
 10
200.1583
 20
210.9337
  0
VERTEX
  8
LAYER_1
 10
200.1566
 20
210.9329
  0
VERTEX
  8
LAYER_1
 10
200.1118
 20
210.9175
  0
VERTEX
  8
LAYER_1
 10
200.0405
 20
210.8936
  0
VERTEX
  8
LAYER_1
 10
200.0181
 20
210.8867
 42
-0.0237322773
  0
VERTEX
  8
LAYER_1
 10
198.8306
 20
210.5675
  0
VERTEX
  8
LAYER_1
 10
198.8289
 20
210.5672
  0
VERTEX
  8
LAYER_1
 10
198.77
 20
210.5537
  0
VERTEX
  8
LAYER_1
 10
198.7682
 20
210.5537
 42
-0.02502399771
  0
VERTEX
  8
LAYER_1
 10
196.438
 20
210.1744
  0
VERTEX
  8
LAYER_1
 10
195.9005
 20
210.1159
  0
VERTEX
  8
LAYER_1
 10
195.8799
 20
210.1141
 42
-0.0137979556
  0
VERTEX
  8
LAYER_1
 10
193.6557
 20
209.9572
  0
VERTEX
  8
LAYER_1
 10
193.6533
 20
209.9572
  0
VERTEX
  8
LAYER_1
 10
193.5675
 20
209.9536
  0
VERTEX
  8
LAYER_1
 10
193.5665
 20
209.9536
 42
-0.01019901354
  0
VERTEX
  8
LAYER_1
 10
191.4722
 20
209.9095
  0
VERTEX
  8
LAYER_1
 10
191.426
 20
209.9095
  0
VERTEX
  8
LAYER_1
 10
191.3799
 20
209.9095
 42
-0.007902494964
  0
VERTEX
  8
LAYER_1
 10
189.5719
 20
209.941
  0
VERTEX
  8
LAYER_1
 10
189.5498
 20
209.9421
  0
VERTEX
  8
LAYER_1
 10
189.3514
 20
209.9486
 42
-0.01051419841
  0
VERTEX
  8
LAYER_1
 10
186.7786
 20
210.0978
  0
VERTEX
  8
LAYER_1
 10
185.691
 20
210.1965
  0
VERTEX
  8
LAYER_1
 10
185.6786
 20
210.1979
  0
VERTEX
  8
LAYER_1
 10
185.5687
 20
210.2087
  0
VERTEX
  8
LAYER_1
 10
185.5129
 20
210.214
  0
SEQEND
  0
TEXT
  8
LAYER_1
 10
210.2724
 20
182.183
 11
210.2724
 21
182.183
 40
2.9689
 41
0.5
  1
脚部はボルト固定です。
  0
ENDSEC
  0
EOF
