  0
SECTION
  2
HEADER
  9
$ACADVER
  1
AC1009
  9
$LUNITS
 70
2
  9
$LUPREC
 70
4
  9
$LTSCALE
 40
1.0
  9
$EXTMIN
 10
-30.3177
 20
33.3285
 30
0
  9
$EXTMAX
 10
251.6749
 20
230.337
 30
0
  0
ENDSEC
  0
SECTION
  2
TABLES
  0
TABLE
  2
LTYPE
 70
256
  0
LTYPE
  2
AIGENLINE001
 70
64
  3
generate AI->DXF Converter
 72
65
 73
2
 40
0.2173
 49
0
 49
-0.2173
  0
LTYPE
  2
AIGENLINE002
 70
64
  3
generate AI->DXF Converter
 72
65
 73
2
 40
0.212
 49
0
 49
-0.212
  0
LTYPE
  2
AIGENLINE003
 70
64
  3
generate AI->DXF Converter
 72
65
 73
2
 40
0.2237
 49
0
 49
-0.2237
  0
LTYPE
  2
AIGENLINE004
 70
64
  3
generate AI->DXF Converter
 72
65
 73
2
 40
0.2208
 49
0
 49
-0.2208
  0
LTYPE
  2
AIGENLINE005
 70
64
  3
generate AI->DXF Converter
 72
65
 73
2
 40
0.2148
 49
0
 49
-0.2148
  0
LTYPE
  2
AIGENLINE006
 70
64
  3
generate AI->DXF Converter
 72
65
 73
2
 40
0.2222
 49
0
 49
-0.2222
  0
LTYPE
  2
AIGENLINE007
 70
64
  3
generate AI->DXF Converter
 72
65
 73
2
 40
0.2215
 49
0
 49
-0.2215
  0
ENDTAB
  0
TABLE
  2
LAYER
 70
2
  0
LAYER
  2
LAYER_1
 70
64
 62
7
  6
CONTINUOUS
  0
LAYER
  2
LAYER_2
 70
64
 62
7
  6
CONTINUOUS
  0
ENDTAB
  0
TABLE
  2
STYLE
 70
6
  0
STYLE
  2
STANDARD
 70
0
 40
0
 50
0
 71
0
 41
0
 42
0
  3
TXT
  4
BIGFONT
  0
ENDTAB
  0
ENDSEC
  0
SECTION
  2
BLOCKS
  0
BLOCK
  8
LAYER_2
  2
AIGNBL02040009
 70
64
 10
0
 20
0
 30
0
  3
AIGNBL02040009
  0
POLYLINE
  8
LAYER_2
 40
0.05
 41
0.05
 66
1
 10
0
 20
0
 30
0
 70
1
  0
VERTEX
  8
LAYER_2
 10
146.7545
 20
39.1418
  0
VERTEX
  8
LAYER_2
 10
146.2656
 20
37.9567
  0
VERTEX
  8
LAYER_2
 10
145.6376
 20
37.9567
  0
VERTEX
  8
LAYER_2
 10
147.2372
 20
41.7225
  0
VERTEX
  8
LAYER_2
 10
147.9703
 20
41.7225
  0
VERTEX
  8
LAYER_2
 10
149.5768
 20
37.9567
  0
VERTEX
  8
LAYER_2
 10
148.9267
 20
37.9567
  0
VERTEX
  8
LAYER_2
 10
148.424
 20
39.1418
  0
SEQEND
  0
POLYLINE
  8
LAYER_2
 40
0.05
 41
0.05
 66
1
 10
0
 20
0
 30
0
 70
1
  0
VERTEX
  8
LAYER_2
 10
148.2983
 20
39.5207
  0
VERTEX
  8
LAYER_2
 10
147.8373
 20
40.6056
 42
-0.02317247198
  0
VERTEX
  8
LAYER_2
 10
147.5927
 20
41.2926
  0
VERTEX
  8
LAYER_2
 10
147.5789
 20
41.2926
 42
-0.02064481114
  0
VERTEX
  8
LAYER_2
 10
147.3412
 20
40.6101
  0
VERTEX
  8
LAYER_2
 10
146.8806
 20
39.5207
  0
SEQEND
  0
ENDBLK
  0
BLOCK
  8
LAYER_2
  2
AIGNBL0204000A
 70
64
 10
0
 20
0
 30
0
  3
AIGNBL0204000A
  0
POLYLINE
  8
LAYER_2
 40
0.05
 41
0.05
 66
1
 10
0
 20
0
 30
0
 70
1
  0
VERTEX
  8
LAYER_2
 10
153.942
 20
37.4034
 42
-0.01520763512
  0
VERTEX
  8
LAYER_2
 10
152.1399
 20
37.8395
 42
0.09160443264
  0
VERTEX
  8
LAYER_2
 10
151.8533
 20
37.895
 42
-0.09256808484
  0
VERTEX
  8
LAYER_2
 10
150.8994
 20
38.0977
 42
-0.09799469934
  0
VERTEX
  8
LAYER_2
 10
150.2621
 20
38.5324
 42
-0.1630918382
  0
VERTEX
  8
LAYER_2
 10
149.7964
 20
39.5259
 42
-0.0316951694
  0
VERTEX
  8
LAYER_2
 10
149.7793
 20
39.7998
 42
-0.1055313794
  0
VERTEX
  8
LAYER_2
 10
149.9533
 20
40.6417
 42
-0.1619874109
  0
VERTEX
  8
LAYER_2
 10
150.7418
 20
41.4867
 42
-0.09224146328
  0
VERTEX
  8
LAYER_2
 10
151.5409
 20
41.7524
 42
-0.03717154931
  0
VERTEX
  8
LAYER_2
 10
151.9725
 20
41.7838
 42
-0.09530639066
  0
VERTEX
  8
LAYER_2
 10
152.9361
 20
41.6062
 42
-0.1001950085
  0
VERTEX
  8
LAYER_2
 10
153.5732
 20
41.1834
 42
-0.1611155306
  0
VERTEX
  8
LAYER_2
 10
154.0599
 20
40.1825
 42
-0.03590167283
  0
VERTEX
  8
LAYER_2
 10
154.0815
 20
39.8784
 42
-0.1066761192
  0
VERTEX
  8
LAYER_2
 10
153.9051
 20
39.0236
 42
-0.2183970027
  0
VERTEX
  8
LAYER_2
 10
152.7953
 20
38.0897
 42
-0.006706711403
  0
VERTEX
  8
LAYER_2
 10
152.7407
 20
38.0738
  0
VERTEX
  8
LAYER_2
 10
152.7407
 20
38.0514
 42
0.01533555045
  0
VERTEX
  8
LAYER_2
 10
154.117
 20
37.8113
  0
SEQEND
  0
POLYLINE
  8
LAYER_2
 40
0.05
 41
0.05
 66
1
 10
0
 20
0
 30
0
 70
1
  0
VERTEX
  8
LAYER_2
 10
153.4394
 20
39.857
 42
0.1175610784
  0
VERTEX
  8
LAYER_2
 10
153.257
 20
40.6254
 42
0.1170135141
  0
VERTEX
  8
LAYER_2
 10
152.8315
 20
41.1234
 42
0.1200044572
  0
VERTEX
  8
LAYER_2
 10
152.2186
 20
41.3675
 42
0.03774262044
  0
VERTEX
  8
LAYER_2
 10
151.9511
 20
41.3873
 42
0.1153139376
  0
VERTEX
  8
LAYER_2
 10
151.2089
 20
41.2226
 42
0.1853550912
  0
VERTEX
  8
LAYER_2
 10
150.5507
 20
40.4882
 42
0.09859892291
  0
VERTEX
  8
LAYER_2
 10
150.4287
 20
39.8122
 42
0.1178359247
  0
VERTEX
  8
LAYER_2
 10
150.5964
 20
39.0734
 42
0.2866694251
  0
VERTEX
  8
LAYER_2
 10
151.9232
 20
38.2912
 42
0.1188197759
  0
VERTEX
  8
LAYER_2
 10
152.6722
 20
38.4633
 42
0.1796740134
  0
VERTEX
  8
LAYER_2
 10
153.3126
 20
39.18
 42
0.09850052237
  0
SEQEND
  0
ENDBLK
  0
BLOCK
  8
LAYER_2
  2
AIGNBL0204000B
 70
64
 10
0
 20
0
 30
0
  3
AIGNBL0204000B
  0
POLYLINE
  8
LAYER_2
 40
0.05
 41
0.05
 66
1
 10
0
 20
0
 30
0
 70
1
  0
VERTEX
  8
LAYER_2
 10
155.4089
 20
41.7225
  0
VERTEX
  8
LAYER_2
 10
155.4089
 20
39.4932
 42
0.1220213404
  0
VERTEX
  8
LAYER_2
 10
155.569
 20
38.7775
 42
0.2218709818
  0
VERTEX
  8
LAYER_2
 10
156.2104
 20
38.3206
 42
0.05223876895
  0
VERTEX
  8
LAYER_2
 10
156.5055
 20
38.2912
 42
0.1302821267
  0
VERTEX
  8
LAYER_2
 10
157.1748
 20
38.452
 42
0.1509367336
  0
VERTEX
  8
LAYER_2
 10
157.526
 20
38.8454
 42
0.1174732039
  0
VERTEX
  8
LAYER_2
 10
157.651
 20
39.4932
  0
VERTEX
  8
LAYER_2
 10
157.651
 20
41.7225
  0
VERTEX
  8
LAYER_2
 10
158.2656
 20
41.7225
  0
VERTEX
  8
LAYER_2
 10
158.2656
 20
39.5266
 42
-0.1106199636
  0
VERTEX
  8
LAYER_2
 10
158.0961
 20
38.708
 42
-0.1822316276
  0
VERTEX
  8
LAYER_2
 10
157.4057
 20
38.0637
 42
-0.09768689614
  0
VERTEX
  8
LAYER_2
 10
156.6028
 20
37.8972
 42
-0.01000776787
  0
VERTEX
  8
LAYER_2
 10
156.4845
 20
37.895
 42
-0.09899539667
  0
VERTEX
  8
LAYER_2
 10
155.612
 20
38.0554
 42
-0.120955925
  0
VERTEX
  8
LAYER_2
 10
155.1093
 20
38.4366
 42
-0.1193006487
  0
VERTEX
  8
LAYER_2
 10
154.8407
 20
39.0316
 42
-0.05319923583
  0
VERTEX
  8
LAYER_2
 10
154.7943
 20
39.5045
  0
VERTEX
  8
LAYER_2
 10
154.7943
 20
41.7225
  0
SEQEND
  0
ENDBLK
  0
BLOCK
  8
LAYER_2
  2
AIGNBL0204000C
 70
64
 10
0
 20
0
 30
0
  3
AIGNBL0204000C
  0
POLYLINE
  8
LAYER_2
 40
0.05
 41
0.05
 66
1
 10
0
 20
0
 30
0
 70
1
  0
VERTEX
  8
LAYER_2
 10
160.0119
 20
39.1418
  0
VERTEX
  8
LAYER_2
 10
159.5227
 20
37.9567
  0
VERTEX
  8
LAYER_2
 10
158.8947
 20
37.9567
  0
VERTEX
  8
LAYER_2
 10
160.4939
 20
41.7225
  0
VERTEX
  8
LAYER_2
 10
161.227
 20
41.7225
  0
VERTEX
  8
LAYER_2
 10
162.8335
 20
37.9567
  0
VERTEX
  8
LAYER_2
 10
162.1841
 20
37.9567
  0
VERTEX
  8
LAYER_2
 10
161.6814
 20
39.1418
  0
SEQEND
  0
POLYLINE
  8
LAYER_2
 40
0.05
 41
0.05
 66
1
 10
0
 20
0
 30
0
 70
1
  0
VERTEX
  8
LAYER_2
 10
161.5553
 20
39.5207
  0
VERTEX
  8
LAYER_2
 10
161.094
 20
40.6056
 42
-0.02227599701
  0
VERTEX
  8
LAYER_2
 10
160.8494
 20
41.2926
  0
VERTEX
  8
LAYER_2
 10
160.8357
 20
41.2926
 42
-0.0208222547
  0
VERTEX
  8
LAYER_2
 10
160.5983
 20
40.6101
  0
VERTEX
  8
LAYER_2
 10
160.1373
 20
39.5207
  0
SEQEND
  0
ENDBLK
  0
BLOCK
  8
LAYER_2
  2
AIGNBL0204000D
 70
64
 10
0
 20
0
 30
0
  3
AIGNBL0204000D
  0
POLYLINE
  8
LAYER_2
 40
0.05
 41
0.05
 66
1
 10
0
 20
0
 30
0
 70
1
  0
VERTEX
  8
LAYER_2
 10
163.8742
 20
41.6777
 42
-0.03334485223
  0
VERTEX
  8
LAYER_2
 10
165.0411
 20
41.7508
 42
-0.08844478427
  0
VERTEX
  8
LAYER_2
 10
166.0871
 20
41.5858
 42
-0.06037505309
  0
VERTEX
  8
LAYER_2
 10
166.3609
 20
41.4379
 42
-0.2472514979
  0
VERTEX
  8
LAYER_2
 10
166.7726
 20
40.6497
 42
-0.1483298328
  0
VERTEX
  8
LAYER_2
 10
166.6029
 20
40.0554
 42
-0.07223194904
  0
VERTEX
  8
LAYER_2
 10
166.4095
 20
39.8456
 42
-0.1209372404
  0
VERTEX
  8
LAYER_2
 10
165.7228
 20
39.517
 42
-0.06224269186
  0
VERTEX
  8
LAYER_2
 10
164.9708
 20
39.4319
 42
-0.05738783264
  0
VERTEX
  8
LAYER_2
 10
164.4823
 20
39.4653
  0
VERTEX
  8
LAYER_2
 10
164.4823
 20
37.9567
  0
VERTEX
  8
LAYER_2
 10
163.8742
 20
37.9567
  0
SEQEND
  0
POLYLINE
  8
LAYER_2
 40
0.05
 41
0.05
 66
1
 10
0
 20
0
 30
0
 70
1
  0
VERTEX
  8
LAYER_2
 10
164.4823
 20
39.8622
 42
0.05012782438
  0
VERTEX
  8
LAYER_2
 10
164.9846
 20
39.8229
 42
0.1135299982
  0
VERTEX
  8
LAYER_2
 10
165.7697
 20
39.9822
 42
0.1653556145
  0
VERTEX
  8
LAYER_2
 10
166.1074
 20
40.3302
 42
0.1044590446
  0
VERTEX
  8
LAYER_2
 10
166.1656
 20
40.6273
 42
0.2826437488
  0
VERTEX
  8
LAYER_2
 10
165.8147
 20
41.2103
 42
0.0629694601
  0
VERTEX
  8
LAYER_2
 10
165.549
 20
41.3107
 42
0.06259589917
  0
VERTEX
  8
LAYER_2
 10
165.0552
 20
41.3649
 42
0.05192366909
  0
VERTEX
  8
LAYER_2
 10
164.4823
 20
41.3257
  0
SEQEND
  0
ENDBLK
  0
BLOCK
  8
LAYER_2
  2
AIGNBL0204000E
 70
64
 10
0
 20
0
 30
0
  3
AIGNBL0204000E
  0
POLYLINE
  8
LAYER_2
 40
0.05
 41
0.05
 66
1
 10
0
 20
0
 30
0
 70
1
  0
VERTEX
  8
LAYER_2
 10
168.3246
 20
41.4207
 42
-0.3048675751
  0
VERTEX
  8
LAYER_2
 10
168.1582
 20
41.1661
 42
-0.1151020929
  0
VERTEX
  8
LAYER_2
 10
167.9329
 20
41.1189
 42
-0.2442513348
  0
VERTEX
  8
LAYER_2
 10
167.6028
 20
41.2794
 42
-0.1394546152
  0
VERTEX
  8
LAYER_2
 10
167.5626
 20
41.4207
 42
-0.287439772
  0
VERTEX
  8
LAYER_2
 10
167.7346
 20
41.6803
 42
-0.1179404017
  0
VERTEX
  8
LAYER_2
 10
167.9467
 20
41.7277
 42
-0.2416274379
  0
VERTEX
  8
LAYER_2
 10
168.2814
 20
41.5719
 42
-0.1426378456
  0
SEQEND
  0
POLYLINE
  8
LAYER_2
 40
0.05
 41
0.05
 66
1
 10
0
 20
0
 30
0
 70
1
  0
VERTEX
  8
LAYER_2
 10
167.639
 20
37.9567
  0
VERTEX
  8
LAYER_2
 10
167.639
 20
40.6607
  0
VERTEX
  8
LAYER_2
 10
168.2537
 20
40.6607
  0
VERTEX
  8
LAYER_2
 10
168.2537
 20
37.9567
  0
SEQEND
  0
ENDBLK
  0
BLOCK
  8
LAYER_2
  2
AIGNBL0204000F
 70
64
 10
0
 20
0
 30
0
  3
AIGNBL0204000F
  0
POLYLINE
  8
LAYER_2
 40
0.05
 41
0.05
 66
1
 10
0
 20
0
 30
0
 70
1
  0
VERTEX
  8
LAYER_2
 10
170.1254
 20
39.1418
  0
VERTEX
  8
LAYER_2
 10
169.6372
 20
37.9567
  0
VERTEX
  8
LAYER_2
 10
169.0081
 20
37.9567
  0
VERTEX
  8
LAYER_2
 10
170.6077
 20
41.7225
  0
VERTEX
  8
LAYER_2
 10
171.3415
 20
41.7225
  0
VERTEX
  8
LAYER_2
 10
172.9479
 20
37.9567
  0
VERTEX
  8
LAYER_2
 10
172.2982
 20
37.9567
  0
VERTEX
  8
LAYER_2
 10
171.7955
 20
39.1418
  0
SEQEND
  0
POLYLINE
  8
LAYER_2
 40
0.05
 41
0.05
 66
1
 10
0
 20
0
 30
0
 70
1
  0
VERTEX
  8
LAYER_2
 10
171.6695
 20
39.5207
  0
VERTEX
  8
LAYER_2
 10
171.2085
 20
40.6056
 42
-0.02430767271
  0
VERTEX
  8
LAYER_2
 10
170.9646
 20
41.2926
  0
VERTEX
  8
LAYER_2
 10
170.9498
 20
41.2926
 42
-0.02034719794
  0
VERTEX
  8
LAYER_2
 10
170.7128
 20
40.6101
  0
VERTEX
  8
LAYER_2
 10
170.2518
 20
39.5207
  0
SEQEND
  0
ENDBLK
  0
BLOCK
  8
LAYER_2
  2
AIGNBL02030008
 70
64
 10
0
 20
0
 30
0
  3
AIGNBL02030008
  0
INSERT
  8
LAYER_2
  2
AIGNBL02040009
 10
0
 20
0
 30
0
  0
INSERT
  8
LAYER_2
  2
AIGNBL0204000A
 10
0
 20
0
 30
0
  0
INSERT
  8
LAYER_2
  2
AIGNBL0204000B
 10
0
 20
0
 30
0
  0
INSERT
  8
LAYER_2
  2
AIGNBL0204000C
 10
0
 20
0
 30
0
  0
INSERT
  8
LAYER_2
  2
AIGNBL0204000D
 10
0
 20
0
 30
0
  0
INSERT
  8
LAYER_2
  2
AIGNBL0204000E
 10
0
 20
0
 30
0
  0
INSERT
  8
LAYER_2
  2
AIGNBL0204000F
 10
0
 20
0
 30
0
  0
ENDBLK
  0
BLOCK
  8
LAYER_2
  2
AIGNBL02030011
 70
64
 10
0
 20
0
 30
0
  3
AIGNBL02030011
  0
POLYLINE
  8
LAYER_2
 40
0.05
 41
0.05
 66
1
 10
0
 20
0
 30
0
 70
1
  0
VERTEX
  8
LAYER_2
 10
145.7475
 20
36.0574
  0
VERTEX
  8
LAYER_2
 10
146.3008
 20
36.0574
  0
VERTEX
  8
LAYER_2
 10
146.3008
 20
35.9637
  0
VERTEX
  8
LAYER_2
 10
145.6424
 20
35.9637
  0
VERTEX
  8
LAYER_2
 10
145.6424
 20
36.9969
  0
VERTEX
  8
LAYER_2
 10
146.2832
 20
36.9969
  0
VERTEX
  8
LAYER_2
 10
146.2832
 20
36.9035
  0
VERTEX
  8
LAYER_2
 10
145.7475
 20
36.9035
  0
VERTEX
  8
LAYER_2
 10
145.7475
 20
36.549
  0
VERTEX
  8
LAYER_2
 10
146.2481
 20
36.549
  0
VERTEX
  8
LAYER_2
 10
146.2481
 20
36.4557
  0
VERTEX
  8
LAYER_2
 10
145.7475
 20
36.4557
  0
SEQEND
  0
ENDBLK
  0
BLOCK
  8
LAYER_2
  2
AIGNBL02030012
 70
64
 10
0
 20
0
 30
0
  3
AIGNBL02030012
  0
POLYLINE
  8
LAYER_2
 40
0.05
 41
0.05
 66
1
 10
0
 20
0
 30
0
 70
1
  0
VERTEX
  8
LAYER_2
 10
147.4404
 20
36.117
  0
VERTEX
  8
LAYER_2
 10
147.4432
 20
36.117
  0
VERTEX
  8
LAYER_2
 10
147.4432
 20
36.9969
  0
VERTEX
  8
LAYER_2
 10
147.5483
 20
36.9969
  0
VERTEX
  8
LAYER_2
 10
147.5483
 20
35.9637
  0
VERTEX
  8
LAYER_2
 10
147.4174
 20
35.9637
  0
VERTEX
  8
LAYER_2
 10
146.8162
 20
36.8525
  0
VERTEX
  8
LAYER_2
 10
146.8127
 20
36.8525
  0
VERTEX
  8
LAYER_2
 10
146.8127
 20
35.9637
  0
VERTEX
  8
LAYER_2
 10
146.708
 20
35.9637
  0
VERTEX
  8
LAYER_2
 10
146.708
 20
36.9969
  0
VERTEX
  8
LAYER_2
 10
146.8393
 20
36.9969
  0
SEQEND
  0
ENDBLK
  0
BLOCK
  8
LAYER_2
  2
AIGNBL02030013
 70
64
 10
0
 20
0
 30
0
  3
AIGNBL02030013
  0
POLYLINE
  8
LAYER_2
 40
0.05
 41
0.05
 66
1
 10
0
 20
0
 30
0
 70
1
  0
VERTEX
  8
LAYER_2
 10
148.0213
 20
36.1756
 42
0.1557655154
  0
VERTEX
  8
LAYER_2
 10
148.0757
 20
36.0725
 42
0.1918235184
  0
VERTEX
  8
LAYER_2
 10
148.1891
 20
36.0309
  0
VERTEX
  8
LAYER_2
 10
148.2783
 20
36.0505
  0
VERTEX
  8
LAYER_2
 10
148.3344
 20
36.1039
  0
VERTEX
  8
LAYER_2
 10
148.3634
 20
36.1804
  0
VERTEX
  8
LAYER_2
 10
148.3717
 20
36.27
  0
VERTEX
  8
LAYER_2
 10
148.3717
 20
36.9969
  0
VERTEX
  8
LAYER_2
 10
148.4767
 20
36.9969
  0
VERTEX
  8
LAYER_2
 10
148.4767
 20
36.2614
  0
VERTEX
  8
LAYER_2
 10
148.4654
 20
36.1535
 42
-0.0973308998
  0
VERTEX
  8
LAYER_2
 10
148.424
 20
36.0485
 42
-0.1149355521
  0
VERTEX
  8
LAYER_2
 10
148.3393
 20
35.9689
 42
-0.1249341208
  0
VERTEX
  8
LAYER_2
 10
148.2004
 20
35.9375
 42
-0.1793665557
  0
VERTEX
  8
LAYER_2
 10
148.0158
 20
35.9974
 42
-0.1772363953
  0
VERTEX
  8
LAYER_2
 10
147.9234
 20
36.149
  0
SEQEND
  0
ENDBLK
  0
BLOCK
  8
LAYER_2
  2
AIGNBL02030014
 70
64
 10
0
 20
0
 30
0
  3
AIGNBL02030014
  0
POLYLINE
  8
LAYER_2
 40
0.05
 41
0.05
 66
1
 10
0
 20
0
 30
0
 70
1
  0
VERTEX
  8
LAYER_2
 10
149.965
 20
36.4805
 42
-0.1019307791
  0
VERTEX
  8
LAYER_2
 10
149.924
 20
36.2631
 42
-0.1000112985
  0
VERTEX
  8
LAYER_2
 10
149.8113
 20
36.0915
 42
-0.09646612644
  0
VERTEX
  8
LAYER_2
 10
149.6405
 20
35.9785
 42
-0.09758594962
  0
VERTEX
  8
LAYER_2
 10
149.4265
 20
35.9375
 42
-0.1000844711
  0
VERTEX
  8
LAYER_2
 10
149.2129
 20
35.9785
 42
-0.09954994557
  0
VERTEX
  8
LAYER_2
 10
149.042
 20
36.0915
 42
-0.09699237735
  0
VERTEX
  8
LAYER_2
 10
148.9287
 20
36.2631
 42
-0.09653980076
  0
VERTEX
  8
LAYER_2
 10
148.8881
 20
36.4805
 42
-0.1004051845
  0
VERTEX
  8
LAYER_2
 10
148.9287
 20
36.6978
 42
-0.0998654539
  0
VERTEX
  8
LAYER_2
 10
149.042
 20
36.8694
 42
-0.09851519288
  0
VERTEX
  8
LAYER_2
 10
149.2129
 20
36.9824
 42
-0.09768823248
  0
VERTEX
  8
LAYER_2
 10
149.4265
 20
37.0234
 42
-0.1000514256
  0
VERTEX
  8
LAYER_2
 10
149.6405
 20
36.9824
 42
-0.09863053528
  0
VERTEX
  8
LAYER_2
 10
149.8113
 20
36.8694
 42
-0.09807107579
  0
VERTEX
  8
LAYER_2
 10
149.924
 20
36.6978
 42
-0.0978256893
  0
SEQEND
  0
POLYLINE
  8
LAYER_2
 40
0.05
 41
0.05
 66
1
 10
0
 20
0
 30
0
 70
1
  0
VERTEX
  8
LAYER_2
 10
149.8541
 20
36.4798
 42
0.08634913196
  0
VERTEX
  8
LAYER_2
 10
149.8251
 20
36.6517
 42
0.09649608129
  0
VERTEX
  8
LAYER_2
 10
149.7404
 20
36.795
 42
0.1032857511
  0
VERTEX
  8
LAYER_2
 10
149.6053
 20
36.8932
 42
0.1061320656
  0
VERTEX
  8
LAYER_2
 10
149.4265
 20
36.93
 42
0.1115874499
  0
VERTEX
  8
LAYER_2
 10
149.2478
 20
36.8932
 42
0.1058584166
  0
VERTEX
  8
LAYER_2
 10
149.113
 20
36.795
 42
0.09787799956
  0
VERTEX
  8
LAYER_2
 10
149.0283
 20
36.6517
 42
0.08491464556
  0
VERTEX
  8
LAYER_2
 10
148.999
 20
36.4798
 42
0.08693146424
  0
VERTEX
  8
LAYER_2
 10
149.0283
 20
36.3079
 42
0.1009797617
  0
VERTEX
  8
LAYER_2
 10
149.113
 20
36.1649
 42
0.09998489394
  0
VERTEX
  8
LAYER_2
 10
149.2478
 20
36.0674
 42
0.1061678446
  0
VERTEX
  8
LAYER_2
 10
149.4265
 20
36.0309
 42
0.1126980581
  0
VERTEX
  8
LAYER_2
 10
149.6053
 20
36.0674
 42
0.1036982708
  0
VERTEX
  8
LAYER_2
 10
149.7404
 20
36.1649
 42
0.09370250368
  0
VERTEX
  8
LAYER_2
 10
149.8251
 20
36.3079
 42
0.08466662837
  0
SEQEND
  0
ENDBLK
  0
BLOCK
  8
LAYER_2
  2
AIGNBL02030015
 70
64
 10
0
 20
0
 30
0
  3
AIGNBL02030015
  0
POLYLINE
  8
LAYER_2
 40
0.05
 41
0.05
 66
1
 10
0
 20
0
 30
0
 70
1
  0
VERTEX
  8
LAYER_2
 10
150.7398
 20
35.9637
  0
VERTEX
  8
LAYER_2
 10
150.6351
 20
35.9637
  0
VERTEX
  8
LAYER_2
 10
150.6351
 20
36.4091
  0
VERTEX
  8
LAYER_2
 10
150.2482
 20
36.9969
  0
VERTEX
  8
LAYER_2
 10
150.3795
 20
36.9969
  0
VERTEX
  8
LAYER_2
 10
150.6905
 20
36.4967
  0
VERTEX
  8
LAYER_2
 10
151.0041
 20
36.9969
  0
VERTEX
  8
LAYER_2
 10
151.1263
 20
36.9969
  0
VERTEX
  8
LAYER_2
 10
150.7398
 20
36.4091
  0
SEQEND
  0
ENDBLK
  0
BLOCK
  8
LAYER_2
  2
AIGNBL02030016
 70
64
 10
0
 20
0
 30
0
  3
AIGNBL02030016
  0
POLYLINE
  8
LAYER_2
 40
0.05
 41
0.05
 66
1
 10
0
 20
0
 30
0
 70
1
  0
VERTEX
  8
LAYER_2
 10
152.0314
 20
36.9969
  0
VERTEX
  8
LAYER_2
 10
152.339
 20
36.9969
  0
VERTEX
  8
LAYER_2
 10
152.4575
 20
36.9845
  0
VERTEX
  8
LAYER_2
 10
152.5643
 20
36.9421
 42
-0.1168262011
  0
VERTEX
  8
LAYER_2
 10
152.6422
 20
36.8611
 42
-0.1230288266
  0
VERTEX
  8
LAYER_2
 10
152.6718
 20
36.733
 42
-0.1795449175
  0
VERTEX
  8
LAYER_2
 10
152.6219
 20
36.5907
 42
-0.170141964
  0
VERTEX
  8
LAYER_2
 10
152.4885
 20
36.5111
  0
VERTEX
  8
LAYER_2
 10
152.4885
 20
36.5084
 42
-0.1719890535
  0
VERTEX
  8
LAYER_2
 10
152.6553
 20
36.4302
 42
-0.2018462152
  0
VERTEX
  8
LAYER_2
 10
152.7214
 20
36.2496
 42
-0.1247085485
  0
VERTEX
  8
LAYER_2
 10
152.6942
 20
36.1325
 42
-0.1153486961
  0
VERTEX
  8
LAYER_2
 10
152.6181
 20
36.0419
 42
-0.08656795839
  0
VERTEX
  8
LAYER_2
 10
152.4972
 20
35.9844
 42
-0.06557363107
  0
VERTEX
  8
LAYER_2
 10
152.3373
 20
35.9637
  0
VERTEX
  8
LAYER_2
 10
152.0314
 20
35.9637
  0
SEQEND
  0
POLYLINE
  8
LAYER_2
 40
0.05
 41
0.05
 66
1
 10
0
 20
0
 30
0
 70
1
  0
VERTEX
  8
LAYER_2
 10
152.1364
 20
36.5445
  0
VERTEX
  8
LAYER_2
 10
152.348
 20
36.5445
  0
VERTEX
  8
LAYER_2
 10
152.4248
 20
36.5535
  0
VERTEX
  8
LAYER_2
 10
152.4951
 20
36.5831
  0
VERTEX
  8
LAYER_2
 10
152.5471
 20
36.6396
 42
0.1162126025
  0
VERTEX
  8
LAYER_2
 10
152.5668
 20
36.7258
  0
VERTEX
  8
LAYER_2
 10
152.5471
 20
36.8095
  0
VERTEX
  8
LAYER_2
 10
152.494
 20
36.8656
  0
VERTEX
  8
LAYER_2
 10
152.4152
 20
36.897
  0
VERTEX
  8
LAYER_2
 10
152.3187
 20
36.9066
  0
VERTEX
  8
LAYER_2
 10
152.1364
 20
36.9066
  0
SEQEND
  0
POLYLINE
  8
LAYER_2
 40
0.05
 41
0.05
 66
1
 10
0
 20
0
 30
0
 70
1
  0
VERTEX
  8
LAYER_2
 10
152.1364
 20
36.0543
  0
VERTEX
  8
LAYER_2
 10
152.3321
 20
36.0543
  0
VERTEX
  8
LAYER_2
 10
152.4406
 20
36.0653
  0
VERTEX
  8
LAYER_2
 10
152.5313
 20
36.1001
 42
0.1172546835
  0
VERTEX
  8
LAYER_2
 10
152.5929
 20
36.1632
 42
0.1286243504
  0
VERTEX
  8
LAYER_2
 10
152.6164
 20
36.2559
 42
0.2498669706
  0
VERTEX
  8
LAYER_2
 10
152.5471
 20
36.4081
 42
0.1538083763
  0
VERTEX
  8
LAYER_2
 10
152.3511
 20
36.4584
  0
VERTEX
  8
LAYER_2
 10
152.1364
 20
36.4584
  0
SEQEND
  0
ENDBLK
  0
BLOCK
  8
LAYER_2
  2
AIGNBL02030017
 70
64
 10
0
 20
0
 30
0
  3
AIGNBL02030017
  0
POLYLINE
  8
LAYER_2
 40
0.05
 41
0.05
 66
1
 10
0
 20
0
 30
0
 70
1
  0
VERTEX
  8
LAYER_2
 10
153.1534
 20
35.9637
  0
VERTEX
  8
LAYER_2
 10
153.038
 20
35.9637
  0
VERTEX
  8
LAYER_2
 10
153.4849
 20
36.9969
  0
VERTEX
  8
LAYER_2
 10
153.5872
 20
36.9969
  0
VERTEX
  8
LAYER_2
 10
154.0306
 20
35.9637
  0
VERTEX
  8
LAYER_2
 10
153.9138
 20
35.9637
  0
VERTEX
  8
LAYER_2
 10
153.7997
 20
36.2352
  0
VERTEX
  8
LAYER_2
 10
153.2657
 20
36.2352
  0
SEQEND
  0
POLYLINE
  8
LAYER_2
 40
0.05
 41
0.05
 66
1
 10
0
 20
0
 30
0
 70
1
  0
VERTEX
  8
LAYER_2
 10
153.305
 20
36.3316
  0
VERTEX
  8
LAYER_2
 10
153.7604
 20
36.3316
  0
VERTEX
  8
LAYER_2
 10
153.5327
 20
36.8804
  0
SEQEND
  0
ENDBLK
  0
BLOCK
  8
LAYER_2
  2
AIGNBL02030018
 70
64
 10
0
 20
0
 30
0
  3
AIGNBL02030018
  0
POLYLINE
  8
LAYER_2
 40
0.05
 41
0.05
 66
1
 10
0
 20
0
 30
0
 70
1
  0
VERTEX
  8
LAYER_2
 10
154.7151
 20
35.9637
  0
VERTEX
  8
LAYER_2
 10
154.61
 20
35.9637
  0
VERTEX
  8
LAYER_2
 10
154.61
 20
36.9035
  0
VERTEX
  8
LAYER_2
 10
154.2638
 20
36.9035
  0
VERTEX
  8
LAYER_2
 10
154.2638
 20
36.9969
  0
VERTEX
  8
LAYER_2
 10
155.0606
 20
36.9969
  0
VERTEX
  8
LAYER_2
 10
155.0606
 20
36.9035
  0
VERTEX
  8
LAYER_2
 10
154.7151
 20
36.9035
  0
SEQEND
  0
ENDBLK
  0
BLOCK
  8
LAYER_2
  2
AIGNBL02030019
 70
64
 10
0
 20
0
 30
0
  3
AIGNBL02030019
  0
POLYLINE
  8
LAYER_2
 40
0.05
 41
0.05
 66
1
 10
0
 20
0
 30
0
 70
1
  0
VERTEX
  8
LAYER_2
 10
155.4169
 20
36.9969
  0
VERTEX
  8
LAYER_2
 10
155.5216
 20
36.9969
  0
VERTEX
  8
LAYER_2
 10
155.5216
 20
36.549
  0
VERTEX
  8
LAYER_2
 10
156.0852
 20
36.549
  0
VERTEX
  8
LAYER_2
 10
156.0852
 20
36.9969
  0
VERTEX
  8
LAYER_2
 10
156.1903
 20
36.9969
  0
VERTEX
  8
LAYER_2
 10
156.1903
 20
35.9637
  0
VERTEX
  8
LAYER_2
 10
156.0852
 20
35.9637
  0
VERTEX
  8
LAYER_2
 10
156.0852
 20
36.4529
  0
VERTEX
  8
LAYER_2
 10
155.5216
 20
36.4529
  0
VERTEX
  8
LAYER_2
 10
155.5216
 20
35.9637
  0
VERTEX
  8
LAYER_2
 10
155.4169
 20
35.9637
  0
SEQEND
  0
ENDBLK
  0
BLOCK
  8
LAYER_2
  2
AIGNBL0203001A
 70
64
 10
0
 20
0
 30
0
  3
AIGNBL0203001A
  0
POLYLINE
  8
LAYER_2
 40
0.05
 41
0.05
 66
1
 10
0
 20
0
 30
0
 70
1
  0
VERTEX
  8
LAYER_2
 10
156.7708
 20
35.9637
  0
VERTEX
  8
LAYER_2
 10
156.6657
 20
35.9637
  0
VERTEX
  8
LAYER_2
 10
156.6657
 20
36.9969
  0
VERTEX
  8
LAYER_2
 10
156.9696
 20
36.9969
  0
VERTEX
  8
LAYER_2
 10
157.1101
 20
36.9824
 42
-0.1032885834
  0
VERTEX
  8
LAYER_2
 10
157.2228
 20
36.9349
 42
-0.1280591957
  0
VERTEX
  8
LAYER_2
 10
157.2962
 20
36.8494
 42
-0.1078860225
  0
VERTEX
  8
LAYER_2
 10
157.3223
 20
36.7213
  0
VERTEX
  8
LAYER_2
 10
157.3024
 20
36.6176
  0
VERTEX
  8
LAYER_2
 10
157.2469
 20
36.5366
  0
VERTEX
  8
LAYER_2
 10
157.1635
 20
36.4818
  0
VERTEX
  8
LAYER_2
 10
157.0585
 20
36.4557
  0
VERTEX
  8
LAYER_2
 10
157.3606
 20
35.9637
  0
VERTEX
  8
LAYER_2
 10
157.2321
 20
35.9637
  0
VERTEX
  8
LAYER_2
 10
156.9461
 20
36.4467
  0
VERTEX
  8
LAYER_2
 10
156.7708
 20
36.4467
  0
SEQEND
  0
POLYLINE
  8
LAYER_2
 40
0.05
 41
0.05
 66
1
 10
0
 20
0
 30
0
 70
1
  0
VERTEX
  8
LAYER_2
 10
156.7708
 20
36.5373
  0
VERTEX
  8
LAYER_2
 10
156.9534
 20
36.5373
 42
0.153451873
  0
VERTEX
  8
LAYER_2
 10
157.1491
 20
36.5831
 42
0.2580279849
  0
VERTEX
  8
LAYER_2
 10
157.2176
 20
36.7213
  0
VERTEX
  8
LAYER_2
 10
157.1983
 20
36.8071
  0
VERTEX
  8
LAYER_2
 10
157.146
 20
36.8643
  0
VERTEX
  8
LAYER_2
 10
157.0643
 20
36.8963
  0
VERTEX
  8
LAYER_2
 10
156.9578
 20
36.9066
  0
VERTEX
  8
LAYER_2
 10
156.7708
 20
36.9066
  0
SEQEND
  0
ENDBLK
  0
BLOCK
  8
LAYER_2
  2
AIGNBL0203001B
 70
64
 10
0
 20
0
 30
0
  3
AIGNBL0203001B
  0
POLYLINE
  8
LAYER_2
 40
0.05
 41
0.05
 66
1
 10
0
 20
0
 30
0
 70
1
  0
VERTEX
  8
LAYER_2
 10
158.7627
 20
36.4805
 42
-0.09904480664
  0
VERTEX
  8
LAYER_2
 10
158.7221
 20
36.2631
 42
-0.09984043552
  0
VERTEX
  8
LAYER_2
 10
158.6087
 20
36.0915
 42
-0.09841590082
  0
VERTEX
  8
LAYER_2
 10
158.4382
 20
35.9785
 42
-0.09758412454
  0
VERTEX
  8
LAYER_2
 10
158.2243
 20
35.9375
 42
-0.09999517154
  0
VERTEX
  8
LAYER_2
 10
158.0103
 20
35.9785
 42
-0.09953435427
  0
VERTEX
  8
LAYER_2
 10
157.8398
 20
36.0915
 42
-0.09853706159
  0
VERTEX
  8
LAYER_2
 10
157.7268
 20
36.2631
 42
-0.09653980076
  0
VERTEX
  8
LAYER_2
 10
157.6862
 20
36.4805
 42
-0.1004051845
  0
VERTEX
  8
LAYER_2
 10
157.7268
 20
36.6978
 42
-0.1008040346
  0
VERTEX
  8
LAYER_2
 10
157.8398
 20
36.8694
 42
-0.09763764092
  0
VERTEX
  8
LAYER_2
 10
158.0103
 20
36.9824
 42
-0.09752919603
  0
VERTEX
  8
LAYER_2
 10
158.2243
 20
37.0234
 42
-0.1000174927
  0
VERTEX
  8
LAYER_2
 10
158.4382
 20
36.9824
 42
-0.1009762109
  0
VERTEX
  8
LAYER_2
 10
158.6087
 20
36.8694
 42
-0.09735230618
  0
VERTEX
  8
LAYER_2
 10
158.7221
 20
36.6978
 42
-0.09580191209
  0
SEQEND
  0
POLYLINE
  8
LAYER_2
 40
0.05
 41
0.05
 66
1
 10
0
 20
0
 30
0
 70
1
  0
VERTEX
  8
LAYER_2
 10
158.6518
 20
36.4798
 42
0.08852014676
  0
VERTEX
  8
LAYER_2
 10
158.6225
 20
36.6517
 42
0.09973444611
  0
VERTEX
  8
LAYER_2
 10
158.5378
 20
36.795
 42
0.1024799068
  0
VERTEX
  8
LAYER_2
 10
158.4031
 20
36.8932
 42
0.1060321998
  0
VERTEX
  8
LAYER_2
 10
158.2243
 20
36.93
 42
0.1116325688
  0
VERTEX
  8
LAYER_2
 10
158.0455
 20
36.8932
 42
0.1060506217
  0
VERTEX
  8
LAYER_2
 10
157.9104
 20
36.795
 42
0.09526104957
  0
VERTEX
  8
LAYER_2
 10
157.8257
 20
36.6517
 42
0.08422602157
  0
VERTEX
  8
LAYER_2
 10
157.7968
 20
36.4798
 42
0.0876992245
  0
VERTEX
  8
LAYER_2
 10
157.8257
 20
36.3079
 42
0.09826867926
  0
VERTEX
  8
LAYER_2
 10
157.9104
 20
36.1649
 42
0.09965756504
  0
VERTEX
  8
LAYER_2
 10
158.0455
 20
36.0674
 42
0.1061654103
  0
VERTEX
  8
LAYER_2
 10
158.2243
 20
36.0309
 42
0.1124388132
  0
VERTEX
  8
LAYER_2
 10
158.4031
 20
36.0674
 42
0.1029122982
  0
VERTEX
  8
LAYER_2
 10
158.5378
 20
36.1649
 42
0.09882210045
  0
VERTEX
  8
LAYER_2
 10
158.6225
 20
36.3079
 42
0.08589740831
  0
SEQEND
  0
ENDBLK
  0
BLOCK
  8
LAYER_2
  2
AIGNBL0203001C
 70
64
 10
0
 20
0
 30
0
  3
AIGNBL0203001C
  0
POLYLINE
  8
LAYER_2
 40
0.05
 41
0.05
 66
1
 10
0
 20
0
 30
0
 70
1
  0
VERTEX
  8
LAYER_2
 10
160.2045
 20
36.4805
 42
-0.1019307791
  0
VERTEX
  8
LAYER_2
 10
160.1635
 20
36.2631
 42
-0.09929652324
  0
VERTEX
  8
LAYER_2
 10
160.0509
 20
36.0915
 42
-0.09710469009
  0
VERTEX
  8
LAYER_2
 10
159.88
 20
35.9785
 42
-0.09758412454
  0
VERTEX
  8
LAYER_2
 10
159.6661
 20
35.9375
 42
-0.1005051182
  0
VERTEX
  8
LAYER_2
 10
159.4524
 20
35.9785
 42
-0.1009789173
  0
VERTEX
  8
LAYER_2
 10
159.2816
 20
36.0915
 42
-0.09724598852
  0
VERTEX
  8
LAYER_2
 10
159.1682
 20
36.2631
 42
-0.09653980076
  0
VERTEX
  8
LAYER_2
 10
159.1276
 20
36.4805
 42
-0.1004051845
  0
VERTEX
  8
LAYER_2
 10
159.1682
 20
36.6978
 42
-0.1001669327
  0
VERTEX
  8
LAYER_2
 10
159.2816
 20
36.8694
 42
-0.09846843416
  0
VERTEX
  8
LAYER_2
 10
159.4524
 20
36.9824
 42
-0.09783444074
  0
VERTEX
  8
LAYER_2
 10
159.6661
 20
37.0234
 42
-0.1000174927
  0
VERTEX
  8
LAYER_2
 10
159.88
 20
36.9824
 42
-0.098457988
  0
VERTEX
  8
LAYER_2
 10
160.0509
 20
36.8694
 42
-0.09762598086
  0
VERTEX
  8
LAYER_2
 10
160.1635
 20
36.6978
 42
-0.0978256893
  0
SEQEND
  0
POLYLINE
  8
LAYER_2
 40
0.05
 41
0.05
 66
1
 10
0
 20
0
 30
0
 70
1
  0
VERTEX
  8
LAYER_2
 10
160.0936
 20
36.4798
 42
0.08653869446
  0
VERTEX
  8
LAYER_2
 10
160.0647
 20
36.6517
 42
0.09689814906
  0
VERTEX
  8
LAYER_2
 10
159.9799
 20
36.795
 42
0.1032857511
  0
VERTEX
  8
LAYER_2
 10
159.8448
 20
36.8932
 42
0.1061350344
  0
VERTEX
  8
LAYER_2
 10
159.6661
 20
36.93
 42
0.1114208933
  0
VERTEX
  8
LAYER_2
 10
159.4872
 20
36.8932
 42
0.1056595975
  0
VERTEX
  8
LAYER_2
 10
159.3525
 20
36.795
 42
0.09787799956
  0
VERTEX
  8
LAYER_2
 10
159.2678
 20
36.6517
 42
0.08491464556
  0
VERTEX
  8
LAYER_2
 10
159.2385
 20
36.4798
 42
0.08693146424
  0
VERTEX
  8
LAYER_2
 10
159.2678
 20
36.3079
 42
0.1009797617
  0
VERTEX
  8
LAYER_2
 10
159.3525
 20
36.1649
 42
0.09978391674
  0
VERTEX
  8
LAYER_2
 10
159.4872
 20
36.0674
 42
0.1060616244
  0
VERTEX
  8
LAYER_2
 10
159.6661
 20
36.0309
 42
0.1126531325
  0
VERTEX
  8
LAYER_2
 10
159.8448
 20
36.0674
 42
0.1036982708
  0
VERTEX
  8
LAYER_2
 10
159.9799
 20
36.1649
 42
0.09401062747
  0
VERTEX
  8
LAYER_2
 10
160.0647
 20
36.3079
 42
0.0844927763
  0
SEQEND
  0
ENDBLK
  0
BLOCK
  8
LAYER_2
  2
AIGNBL0203001D
 70
64
 10
0
 20
0
 30
0
  3
AIGNBL0203001D
  0
POLYLINE
  8
LAYER_2
 40
0.05
 41
0.05
 66
1
 10
0
 20
0
 30
0
 70
1
  0
VERTEX
  8
LAYER_2
 10
161.1354
 20
36.1418
  0
VERTEX
  8
LAYER_2
 10
161.1371
 20
36.1418
  0
VERTEX
  8
LAYER_2
 10
161.4826
 20
36.9969
  0
VERTEX
  8
LAYER_2
 10
161.6435
 20
36.9969
  0
VERTEX
  8
LAYER_2
 10
161.6435
 20
35.9637
  0
VERTEX
  8
LAYER_2
 10
161.5381
 20
35.9637
  0
VERTEX
  8
LAYER_2
 10
161.5381
 20
36.8611
  0
VERTEX
  8
LAYER_2
 10
161.5354
 20
36.8611
  0
VERTEX
  8
LAYER_2
 10
161.1619
 20
35.9637
  0
VERTEX
  8
LAYER_2
 10
161.1064
 20
35.9637
  0
VERTEX
  8
LAYER_2
 10
160.7326
 20
36.8611
  0
VERTEX
  8
LAYER_2
 10
160.7299
 20
36.8611
  0
VERTEX
  8
LAYER_2
 10
160.7299
 20
35.9637
  0
VERTEX
  8
LAYER_2
 10
160.6248
 20
35.9637
  0
VERTEX
  8
LAYER_2
 10
160.6248
 20
36.9969
  0
VERTEX
  8
LAYER_2
 10
160.7853
 20
36.9969
  0
SEQEND
  0
ENDBLK
  0
BLOCK
  8
LAYER_2
  2
AIGNBL0203001E
 70
64
 10
0
 20
0
 30
0
  3
AIGNBL0203001E
  0
POLYLINE
  8
LAYER_2
 40
0.05
 41
0.05
 66
1
 10
0
 20
0
 30
0
 70
1
  0
VERTEX
  8
LAYER_2
 10
162.79
 20
36.0574
  0
VERTEX
  8
LAYER_2
 10
163.3433
 20
36.0574
  0
VERTEX
  8
LAYER_2
 10
163.3433
 20
35.9637
  0
VERTEX
  8
LAYER_2
 10
162.685
 20
35.9637
  0
VERTEX
  8
LAYER_2
 10
162.685
 20
36.9969
  0
VERTEX
  8
LAYER_2
 10
163.3258
 20
36.9969
  0
VERTEX
  8
LAYER_2
 10
163.3258
 20
36.9035
  0
VERTEX
  8
LAYER_2
 10
162.79
 20
36.9035
  0
VERTEX
  8
LAYER_2
 10
162.79
 20
36.549
  0
VERTEX
  8
LAYER_2
 10
163.2906
 20
36.549
  0
VERTEX
  8
LAYER_2
 10
163.2906
 20
36.4557
  0
VERTEX
  8
LAYER_2
 10
162.79
 20
36.4557
  0
SEQEND
  0
ENDBLK
  0
BLOCK
  8
LAYER_2
  2
AIGNBL0203001F
 70
64
 10
0
 20
0
 30
0
  3
AIGNBL0203001F
  0
POLYLINE
  8
LAYER_2
 40
0.05
 41
0.05
 66
1
 10
0
 20
0
 30
0
 70
1
  0
VERTEX
  8
LAYER_2
 10
164.0885
 20
36.5797
  0
VERTEX
  8
LAYER_2
 10
164.3707
 20
36.9969
  0
VERTEX
  8
LAYER_2
 10
164.4957
 20
36.9969
  0
VERTEX
  8
LAYER_2
 10
164.1533
 20
36.5053
  0
VERTEX
  8
LAYER_2
 10
164.5326
 20
35.9637
  0
VERTEX
  8
LAYER_2
 10
164.4013
 20
35.9637
  0
VERTEX
  8
LAYER_2
 10
164.0858
 20
36.4295
  0
VERTEX
  8
LAYER_2
 10
163.7722
 20
35.9637
  0
VERTEX
  8
LAYER_2
 10
163.6407
 20
35.9637
  0
VERTEX
  8
LAYER_2
 10
164.0203
 20
36.5066
  0
VERTEX
  8
LAYER_2
 10
163.6744
 20
36.9969
  0
VERTEX
  8
LAYER_2
 10
163.806
 20
36.9969
  0
SEQEND
  0
ENDBLK
  0
BLOCK
  8
LAYER_2
  2
AIGNBL02030020
 70
64
 10
0
 20
0
 30
0
  3
AIGNBL02030020
  0
POLYLINE
  8
LAYER_2
 40
0.05
 41
0.05
 66
1
 10
0
 20
0
 30
0
 70
1
  0
VERTEX
  8
LAYER_2
 10
164.8988
 20
36.9969
  0
VERTEX
  8
LAYER_2
 10
165.1909
 20
36.9969
  0
VERTEX
  8
LAYER_2
 10
165.3339
 20
36.9804
 42
-0.104160294
  0
VERTEX
  8
LAYER_2
 10
165.4438
 20
36.929
 42
-0.1209616443
  0
VERTEX
  8
LAYER_2
 10
165.5148
 20
36.8429
 42
-0.1032545831
  0
VERTEX
  8
LAYER_2
 10
165.5392
 20
36.7213
 42
-0.1239274235
  0
VERTEX
  8
LAYER_2
 10
165.5141
 20
36.5993
 42
-0.1163667494
  0
VERTEX
  8
LAYER_2
 10
165.4424
 20
36.5132
 42
-0.08715194998
  0
VERTEX
  8
LAYER_2
 10
165.3315
 20
36.4615
 42
-0.06075348808
  0
VERTEX
  8
LAYER_2
 10
165.1878
 20
36.444
  0
VERTEX
  8
LAYER_2
 10
165.0039
 20
36.444
  0
VERTEX
  8
LAYER_2
 10
165.0039
 20
35.9637
  0
VERTEX
  8
LAYER_2
 10
164.8988
 20
35.9637
  0
SEQEND
  0
POLYLINE
  8
LAYER_2
 40
0.05
 41
0.05
 66
1
 10
0
 20
0
 30
0
 70
1
  0
VERTEX
  8
LAYER_2
 10
165.0039
 20
36.5328
  0
VERTEX
  8
LAYER_2
 10
165.1816
 20
36.5328
 42
0.1694225951
  0
VERTEX
  8
LAYER_2
 10
165.3701
 20
36.581
 42
0.2442570363
  0
VERTEX
  8
LAYER_2
 10
165.4345
 20
36.7213
 42
0.2590967024
  0
VERTEX
  8
LAYER_2
 10
165.368
 20
36.8622
 42
0.143072224
  0
VERTEX
  8
LAYER_2
 10
165.1816
 20
36.9066
  0
VERTEX
  8
LAYER_2
 10
165.0039
 20
36.9066
  0
SEQEND
  0
ENDBLK
  0
BLOCK
  8
LAYER_2
  2
AIGNBL02030021
 70
64
 10
0
 20
0
 30
0
  3
AIGNBL02030021
  0
POLYLINE
  8
LAYER_2
 40
0.05
 41
0.05
 66
1
 10
0
 20
0
 30
0
 70
1
  0
VERTEX
  8
LAYER_2
 10
166.0515
 20
36.0574
  0
VERTEX
  8
LAYER_2
 10
166.6048
 20
36.0574
  0
VERTEX
  8
LAYER_2
 10
166.6048
 20
35.9637
  0
VERTEX
  8
LAYER_2
 10
165.9465
 20
35.9637
  0
VERTEX
  8
LAYER_2
 10
165.9465
 20
36.9969
  0
VERTEX
  8
LAYER_2
 10
166.5872
 20
36.9969
  0
VERTEX
  8
LAYER_2
 10
166.5872
 20
36.9035
  0
VERTEX
  8
LAYER_2
 10
166.0515
 20
36.9035
  0
VERTEX
  8
LAYER_2
 10
166.0515
 20
36.549
  0
VERTEX
  8
LAYER_2
 10
166.5521
 20
36.549
  0
VERTEX
  8
LAYER_2
 10
166.5521
 20
36.4557
  0
VERTEX
  8
LAYER_2
 10
166.0515
 20
36.4557
  0
SEQEND
  0
ENDBLK
  0
BLOCK
  8
LAYER_2
  2
AIGNBL02030022
 70
64
 10
0
 20
0
 30
0
  3
AIGNBL02030022
  0
POLYLINE
  8
LAYER_2
 40
0.05
 41
0.05
 66
1
 10
0
 20
0
 30
0
 70
1
  0
VERTEX
  8
LAYER_2
 10
167.1168
 20
35.9637
  0
VERTEX
  8
LAYER_2
 10
167.0117
 20
35.9637
  0
VERTEX
  8
LAYER_2
 10
167.0117
 20
36.9969
  0
VERTEX
  8
LAYER_2
 10
167.3155
 20
36.9969
  0
VERTEX
  8
LAYER_2
 10
167.4561
 20
36.9824
 42
-0.1039428931
  0
VERTEX
  8
LAYER_2
 10
167.5687
 20
36.9349
 42
-0.1259973384
  0
VERTEX
  8
LAYER_2
 10
167.6425
 20
36.8494
 42
-0.1064650891
  0
VERTEX
  8
LAYER_2
 10
167.6683
 20
36.7213
  0
VERTEX
  8
LAYER_2
 10
167.6483
 20
36.6176
  0
VERTEX
  8
LAYER_2
 10
167.5929
 20
36.5366
  0
VERTEX
  8
LAYER_2
 10
167.5095
 20
36.4818
  0
VERTEX
  8
LAYER_2
 10
167.4044
 20
36.4557
  0
VERTEX
  8
LAYER_2
 10
167.7066
 20
35.9637
  0
VERTEX
  8
LAYER_2
 10
167.578
 20
35.9637
  0
VERTEX
  8
LAYER_2
 10
167.2921
 20
36.4467
  0
VERTEX
  8
LAYER_2
 10
167.1168
 20
36.4467
  0
SEQEND
  0
POLYLINE
  8
LAYER_2
 40
0.05
 41
0.05
 66
1
 10
0
 20
0
 30
0
 70
1
  0
VERTEX
  8
LAYER_2
 10
167.1168
 20
36.5373
  0
VERTEX
  8
LAYER_2
 10
167.2994
 20
36.5373
 42
0.1542400453
  0
VERTEX
  8
LAYER_2
 10
167.495
 20
36.5831
 42
0.2583775622
  0
VERTEX
  8
LAYER_2
 10
167.5636
 20
36.7213
  0
VERTEX
  8
LAYER_2
 10
167.5446
 20
36.8071
  0
VERTEX
  8
LAYER_2
 10
167.4919
 20
36.8643
  0
VERTEX
  8
LAYER_2
 10
167.4103
 20
36.8963
  0
VERTEX
  8
LAYER_2
 10
167.3038
 20
36.9066
  0
VERTEX
  8
LAYER_2
 10
167.1168
 20
36.9066
  0
SEQEND
  0
ENDBLK
  0
BLOCK
  8
LAYER_2
  2
AIGNBL02030023
 70
64
 10
0
 20
0
 30
0
  3
AIGNBL02030023
  0
POLYLINE
  8
LAYER_2
 40
0.05
 41
0.05
 66
1
 10
0
 20
0
 30
0
 70
1
  0
VERTEX
  8
LAYER_2
 10
168.1923
 20
35.9637
  0
VERTEX
  8
LAYER_2
 10
168.0876
 20
35.9637
  0
VERTEX
  8
LAYER_2
 10
168.0876
 20
36.9969
  0
VERTEX
  8
LAYER_2
 10
168.1923
 20
36.9969
  0
SEQEND
  0
ENDBLK
  0
BLOCK
  8
LAYER_2
  2
AIGNBL02030024
 70
64
 10
0
 20
0
 30
0
  3
AIGNBL02030024
  0
POLYLINE
  8
LAYER_2
 40
0.05
 41
0.05
 66
1
 10
0
 20
0
 30
0
 70
1
  0
VERTEX
  8
LAYER_2
 10
168.7732
 20
36.0574
  0
VERTEX
  8
LAYER_2
 10
169.3261
 20
36.0574
  0
VERTEX
  8
LAYER_2
 10
169.3261
 20
35.9637
  0
VERTEX
  8
LAYER_2
 10
168.6681
 20
35.9637
  0
VERTEX
  8
LAYER_2
 10
168.6681
 20
36.9969
  0
VERTEX
  8
LAYER_2
 10
169.3089
 20
36.9969
  0
VERTEX
  8
LAYER_2
 10
169.3089
 20
36.9035
  0
VERTEX
  8
LAYER_2
 10
168.7732
 20
36.9035
  0
VERTEX
  8
LAYER_2
 10
168.7732
 20
36.549
  0
VERTEX
  8
LAYER_2
 10
169.2737
 20
36.549
  0
VERTEX
  8
LAYER_2
 10
169.2737
 20
36.4557
  0
VERTEX
  8
LAYER_2
 10
168.7732
 20
36.4557
  0
SEQEND
  0
ENDBLK
  0
BLOCK
  8
LAYER_2
  2
AIGNBL02030025
 70
64
 10
0
 20
0
 30
0
  3
AIGNBL02030025
  0
POLYLINE
  8
LAYER_2
 40
0.05
 41
0.05
 66
1
 10
0
 20
0
 30
0
 70
1
  0
VERTEX
  8
LAYER_2
 10
170.4661
 20
36.117
  0
VERTEX
  8
LAYER_2
 10
170.4689
 20
36.117
  0
VERTEX
  8
LAYER_2
 10
170.4689
 20
36.9969
  0
VERTEX
  8
LAYER_2
 10
170.5739
 20
36.9969
  0
VERTEX
  8
LAYER_2
 10
170.5739
 20
35.9637
  0
VERTEX
  8
LAYER_2
 10
170.4426
 20
35.9637
  0
VERTEX
  8
LAYER_2
 10
169.8415
 20
36.8525
  0
VERTEX
  8
LAYER_2
 10
169.8384
 20
36.8525
  0
VERTEX
  8
LAYER_2
 10
169.8384
 20
35.9637
  0
VERTEX
  8
LAYER_2
 10
169.7333
 20
35.9637
  0
VERTEX
  8
LAYER_2
 10
169.7333
 20
36.9969
  0
VERTEX
  8
LAYER_2
 10
169.8649
 20
36.9969
  0
SEQEND
  0
ENDBLK
  0
BLOCK
  8
LAYER_2
  2
AIGNBL02030026
 70
64
 10
0
 20
0
 30
0
  3
AIGNBL02030026
  0
POLYLINE
  8
LAYER_2
 40
0.05
 41
0.05
 66
1
 10
0
 20
0
 30
0
 70
1
  0
VERTEX
  8
LAYER_2
 10
171.9196
 20
36.1315
  0
VERTEX
  8
LAYER_2
 10
171.8558
 20
36.0571
  0
VERTEX
  8
LAYER_2
 10
171.7697
 20
35.9954
  0
VERTEX
  8
LAYER_2
 10
171.6615
 20
35.953
  0
VERTEX
  8
LAYER_2
 10
171.5327
 20
35.9375
 42
-0.0997799169
  0
VERTEX
  8
LAYER_2
 10
171.3167
 20
35.9785
 42
-0.102530266
  0
VERTEX
  8
LAYER_2
 10
171.1461
 20
36.0915
 42
-0.09968794278
  0
VERTEX
  8
LAYER_2
 10
171.0345
 20
36.2631
 42
-0.09630702324
  0
VERTEX
  8
LAYER_2
 10
170.9942
 20
36.4805
 42
-0.1018981748
  0
VERTEX
  8
LAYER_2
 10
171.0352
 20
36.6978
 42
-0.09989904409
  0
VERTEX
  8
LAYER_2
 10
171.1479
 20
36.8694
 42
-0.09694965588
  0
VERTEX
  8
LAYER_2
 10
171.3187
 20
36.9824
 42
-0.09744116728
  0
VERTEX
  8
LAYER_2
 10
171.5327
 20
37.0234
  0
VERTEX
  8
LAYER_2
 10
171.6443
 20
37.0114
  0
VERTEX
  8
LAYER_2
 10
171.7473
 20
36.9779
  0
VERTEX
  8
LAYER_2
 10
171.8348
 20
36.9263
  0
VERTEX
  8
LAYER_2
 10
171.9006
 20
36.8584
  0
VERTEX
  8
LAYER_2
 10
171.8131
 20
36.794
  0
VERTEX
  8
LAYER_2
 10
171.7697
 20
36.8439
  0
VERTEX
  8
LAYER_2
 10
171.7063
 20
36.8877
  0
VERTEX
  8
LAYER_2
 10
171.6267
 20
36.9183
  0
VERTEX
  8
LAYER_2
 10
171.5341
 20
36.93
 42
0.1106055686
  0
VERTEX
  8
LAYER_2
 10
171.3539
 20
36.8935
 42
0.1037389517
  0
VERTEX
  8
LAYER_2
 10
171.2188
 20
36.7954
 42
0.09534605581
  0
VERTEX
  8
LAYER_2
 10
171.1341
 20
36.652
 42
0.08447361069
  0
VERTEX
  8
LAYER_2
 10
171.1052
 20
36.4805
 42
0.09038739564
  0
VERTEX
  8
LAYER_2
 10
171.1351
 20
36.3089
 42
0.09795352863
  0
VERTEX
  8
LAYER_2
 10
171.2205
 20
36.1656
 42
0.1034747097
  0
VERTEX
  8
LAYER_2
 10
171.3556
 20
36.0674
 42
0.1064777274
  0
VERTEX
  8
LAYER_2
 10
171.5341
 20
36.0309
 42
0.1092499226
  0
VERTEX
  8
LAYER_2
 10
171.7032
 20
36.0674
 42
0.1370031249
  0
VERTEX
  8
LAYER_2
 10
171.8376
 20
36.1842
  0
SEQEND
  0
ENDBLK
  0
BLOCK
  8
LAYER_2
  2
AIGNBL02030027
 70
64
 10
0
 20
0
 30
0
  3
AIGNBL02030027
  0
POLYLINE
  8
LAYER_2
 40
0.05
 41
0.05
 66
1
 10
0
 20
0
 30
0
 70
1
  0
VERTEX
  8
LAYER_2
 10
172.4067
 20
36.0574
  0
VERTEX
  8
LAYER_2
 10
172.96
 20
36.0574
  0
VERTEX
  8
LAYER_2
 10
172.96
 20
35.9637
  0
VERTEX
  8
LAYER_2
 10
172.3016
 20
35.9637
  0
VERTEX
  8
LAYER_2
 10
172.3016
 20
36.9969
  0
VERTEX
  8
LAYER_2
 10
172.9424
 20
36.9969
  0
VERTEX
  8
LAYER_2
 10
172.9424
 20
36.9035
  0
VERTEX
  8
LAYER_2
 10
172.4067
 20
36.9035
  0
VERTEX
  8
LAYER_2
 10
172.4067
 20
36.549
  0
VERTEX
  8
LAYER_2
 10
172.9073
 20
36.549
  0
VERTEX
  8
LAYER_2
 10
172.9073
 20
36.4557
  0
VERTEX
  8
LAYER_2
 10
172.4067
 20
36.4557
  0
SEQEND
  0
ENDBLK
  0
BLOCK
  8
LAYER_2
  2
AIGNBL02020004
 70
64
 10
0
 20
0
 30
0
  3
AIGNBL02020004
  0
POLYLINE
  8
LAYER_2
 40
0.05
 41
0.05
 66
1
 10
0
 20
0
 30
0
  0
VERTEX
  8
LAYER_2
 10
-1.196
 20
217.6012
 42
-0.04245719054
  0
VERTEX
  8
LAYER_2
 10
-1.2437
 20
216.7495
 42
-0.1145799327
  0
VERTEX
  8
LAYER_2
 10
-1.4854
 20
216.1042
 42
-0.03657724702
  0
VERTEX
  8
LAYER_2
 10
-1.5732
 20
216.0054
 42
-0.1577844027
  0
VERTEX
  8
LAYER_2
 10
-2.1025
 20
215.7362
 42
-0.04286355862
  0
VERTEX
  8
LAYER_2
 10
-2.3408
 20
215.7164
 42
-0.1461347274
  0
VERTEX
  8
LAYER_2
 10
-2.9525
 20
215.8874
 42
-0.04825720136
  0
VERTEX
  8
LAYER_2
 10
-3.0956
 20
216.0054
 42
-0.1514389093
  0
VERTEX
  8
LAYER_2
 10
-3.3903
 20
216.5711
 42
-0.04033585951
  0
VERTEX
  8
LAYER_2
 10
-3.4563
 20
217.0249
 42
-0.01781626242
  0
VERTEX
  8
LAYER_2
 10
-3.4732
 20
217.6012
 42
-0.04130139583
  0
VERTEX
  8
LAYER_2
 10
-3.4273
 20
218.4296
 42
-0.115134122
  0
VERTEX
  8
LAYER_2
 10
-3.1834
 20
219.0859
 42
-0.03655204802
  0
VERTEX
  8
LAYER_2
 10
-3.0956
 20
219.1845
 42
-0.2077091659
  0
VERTEX
  8
LAYER_2
 10
-2.3408
 20
219.4732
 42
-0.1450941273
  0
VERTEX
  8
LAYER_2
 10
-1.7165
 20
219.3022
 42
-0.04840000405
  0
VERTEX
  8
LAYER_2
 10
-1.5732
 20
219.1845
 42
-0.1513847701
  0
VERTEX
  8
LAYER_2
 10
-1.2787
 20
218.6201
 42
-0.04039612069
  0
VERTEX
  8
LAYER_2
 10
-1.2128
 20
218.1697
 42
-0.01794233576
  0
VERTEX
  8
LAYER_2
 10
-1.196
 20
217.6012
  0
SEQEND
  0
POLYLINE
  8
LAYER_2
 40
0.05
 41
0.05
 66
1
 10
0
 20
0
 30
0
  0
VERTEX
  8
LAYER_2
 10
0.4394
 20
217.6012
 42
0.03175065208
  0
VERTEX
  8
LAYER_2
 10
0.3919
 20
218.5427
 42
0.07858555415
  0
VERTEX
  8
LAYER_2
 10
0.123
 20
219.5272
 42
0.07786217308
  0
VERTEX
  8
LAYER_2
 10
-0.303
 20
220.1395
 42
0.1422741765
  0
VERTEX
  8
LAYER_2
 10
-1.5044
 20
220.8409
 42
0.06575783118
  0
VERTEX
  8
LAYER_2
 10
-2.3408
 20
220.9436
 42
0.08626163736
  0
VERTEX
  8
LAYER_2
 10
-3.3996
 20
220.7669
 42
0.1130730203
  0
VERTEX
  8
LAYER_2
 10
-4.3662
 20
220.1395
 42
0.09873852385
  0
VERTEX
  8
LAYER_2
 10
-4.8748
 20
219.3361
 42
0.04046067269
  0
VERTEX
  8
LAYER_2
 10
-5.006
 20
218.8809
 42
0.03220856709
  0
VERTEX
  8
LAYER_2
 10
-5.0854
 20
218.2915
 42
0.01857685015
  0
VERTEX
  8
LAYER_2
 10
-5.1082
 20
217.6012
 42
0.03149278186
  0
VERTEX
  8
LAYER_2
 10
-5.0608
 20
216.6571
 42
0.0779698511
  0
VERTEX
  8
LAYER_2
 10
-4.7923
 20
215.6655
 42
0.07853580552
  0
VERTEX
  8
LAYER_2
 10
-4.3662
 20
215.0504
 42
0.1826502598
  0
VERTEX
  8
LAYER_2
 10
-2.668
 20
214.2613
 42
0.02311737764
  0
VERTEX
  8
LAYER_2
 10
-2.3408
 20
214.2463
 42
0.08564977323
  0
VERTEX
  8
LAYER_2
 10
-1.2772
 20
214.423
 42
0.1129150187
  0
VERTEX
  8
LAYER_2
 10
-0.303
 20
215.0504
 42
0.1497181056
  0
VERTEX
  8
LAYER_2
 10
0.3325
 20
216.2722
 42
0.03273812963
  0
VERTEX
  8
LAYER_2
 10
0.4143
 20
216.8609
 42
0.01955851524
  0
VERTEX
  8
LAYER_2
 10
0.4394
 20
217.6012
  0
SEQEND
  0
POLYLINE
  8
LAYER_2
 40
0.05
 41
0.05
 66
1
 10
0
 20
0
 30
0
  0
VERTEX
  8
LAYER_2
 10
-11.3166
 20
218.2044
  0
VERTEX
  8
LAYER_2
 10
-13.8074
 20
218.2044
 42
-0.1126267973
  0
VERTEX
  8
LAYER_2
 10
-13.6562
 20
218.9079
 42
-0.1394863081
  0
VERTEX
  8
LAYER_2
 10
-13.2507
 20
219.3934
 42
-0.1317584651
  0
VERTEX
  8
LAYER_2
 10
-12.676
 20
219.5824
 42
-0.01996454454
  0
VERTEX
  8
LAYER_2
 10
-12.562
 20
219.5866
 42
-0.137467943
  0
VERTEX
  8
LAYER_2
 10
-11.8991
 20
219.4101
 42
-0.150691583
  0
VERTEX
  8
LAYER_2
 10
-11.4672
 20
218.9079
 42
-0.1174358853
  0
VERTEX
  8
LAYER_2
 10
-11.3166
 20
218.2044
  0
SEQEND
  0
POLYLINE
  8
LAYER_2
 40
0.05
 41
0.05
 66
1
 10
0
 20
0
 30
0
 70
1
  0
VERTEX
  8
LAYER_2
 10
-9.7064
 20
217.0861
  0
VERTEX
  8
LAYER_2
 10
-9.7064
 20
217.7772
 42
0.07163312002
  0
VERTEX
  8
LAYER_2
 10
-9.8733
 20
218.9838
 42
0.08028385511
  0
VERTEX
  8
LAYER_2
 10
-10.299
 20
219.8659
 42
0.0865588964
  0
VERTEX
  8
LAYER_2
 10
-10.9136
 20
220.4722
 42
0.08455684744
  0
VERTEX
  8
LAYER_2
 10
-11.6929
 20
220.8316
 42
0.06903226706
  0
VERTEX
  8
LAYER_2
 10
-12.562
 20
220.9436
 42
0.08515866825
  0
VERTEX
  8
LAYER_2
 10
-13.5923
 20
220.7733
 42
0.2152076095
  0
VERTEX
  8
LAYER_2
 10
-15.1128
 20
219.2869
 42
0.07250212731
  0
VERTEX
  8
LAYER_2
 10
-15.3825
 20
218.223
 42
0.02934637219
  0
VERTEX
  8
LAYER_2
 10
-15.4177
 20
217.6012
 42
0.06683021014
  0
VERTEX
  8
LAYER_2
 10
-15.2459
 20
216.2162
 42
0.08312981404
  0
VERTEX
  8
LAYER_2
 10
-14.8229
 20
215.3116
 42
0.184288283
  0
VERTEX
  8
LAYER_2
 10
-13.3775
 20
214.3603
 42
0.06413161868
  0
VERTEX
  8
LAYER_2
 10
-12.386
 20
214.2463
 42
0.07683816196
  0
VERTEX
  8
LAYER_2
 10
-11.1942
 20
214.4123
 42
0.08470040866
  0
VERTEX
  8
LAYER_2
 10
-10.383
 20
214.8416
 42
0.03763897922
  0
VERTEX
  8
LAYER_2
 10
-9.8948
 20
215.2768
  0
VERTEX
  8
LAYER_2
 10
-10.8887
 20
216.2442
 42
-0.1072414833
  0
VERTEX
  8
LAYER_2
 10
-11.6397
 20
215.7366
 42
-0.09138316631
  0
VERTEX
  8
LAYER_2
 10
-12.3732
 20
215.6285
 42
-0.1206713536
  0
VERTEX
  8
LAYER_2
 10
-13.1336
 20
215.8026
 42
-0.1907051017
  0
VERTEX
  8
LAYER_2
 10
-13.7142
 20
216.4979
 42
-0.08636520349
  0
VERTEX
  8
LAYER_2
 10
-13.8074
 20
217.0861
  0
SEQEND
  0
POLYLINE
  8
LAYER_2
 40
0.05
 41
0.05
 66
1
 10
0
 20
0
 30
0
 70
1
  0
VERTEX
  8
LAYER_2
 10
-16.9018
 20
223.2773
  0
VERTEX
  8
LAYER_2
 10
-18.5517
 20
223.2773
  0
VERTEX
  8
LAYER_2
 10
-18.5517
 20
221.9454
  0
VERTEX
  8
LAYER_2
 10
-16.9018
 20
221.9454
  0
SEQEND
  0
POLYLINE
  8
LAYER_2
 40
0.05
 41
0.05
 66
1
 10
0
 20
0
 30
0
 70
1
  0
VERTEX
  8
LAYER_2
 10
-16.9146
 20
220.79
  0
VERTEX
  8
LAYER_2
 10
-18.5499
 20
220.79
  0
VERTEX
  8
LAYER_2
 10
-18.5499
 20
214.3218
  0
VERTEX
  8
LAYER_2
 10
-16.9146
 20
214.3218
  0
SEQEND
  0
POLYLINE
  8
LAYER_2
 40
0.05
 41
0.05
 66
1
 10
0
 20
0
 30
0
  0
VERTEX
  8
LAYER_2
 10
-19.8205
 20
215.1386
  0
VERTEX
  8
LAYER_2
 10
-20.9274
 20
216.2317
 42
-0.1240518821
  0
VERTEX
  8
LAYER_2
 10
-21.5761
 20
215.7751
 42
-0.08031715103
  0
VERTEX
  8
LAYER_2
 10
-21.984
 20
215.7164
 42
-0.1386946894
  0
VERTEX
  8
LAYER_2
 10
-22.625
 20
215.8856
 42
-0.08219094685
  0
VERTEX
  8
LAYER_2
 10
-22.9149
 20
216.1436
 42
-0.1253393202
  0
VERTEX
  8
LAYER_2
 10
-23.215
 20
216.8347
 42
-0.05211869655
  0
VERTEX
  8
LAYER_2
 10
-23.2797
 20
217.6012
 42
-0.0435450793
  0
VERTEX
  8
LAYER_2
 10
-23.2306
 20
218.2793
 42
-0.1072750387
  0
VERTEX
  8
LAYER_2
 10
-22.9604
 20
218.9857
 42
-0.01439054395
  0
VERTEX
  8
LAYER_2
 10
-22.9149
 20
219.0461
 42
-0.143087315
  0
VERTEX
  8
LAYER_2
 10
-22.387
 20
219.4143
 42
-0.07946465155
  0
VERTEX
  8
LAYER_2
 10
-21.984
 20
219.4732
 42
-0.1421084185
  0
VERTEX
  8
LAYER_2
 10
-21.3214
 20
219.2962
 42
-0.06975828358
  0
VERTEX
  8
LAYER_2
 10
-20.9274
 20
218.9585
  0
VERTEX
  8
LAYER_2
 10
-19.8205
 20
220.0637
 42
0.08882909472
  0
VERTEX
  8
LAYER_2
 10
-20.632
 20
220.6645
 42
0.08605806955
  0
VERTEX
  8
LAYER_2
 10
-21.5364
 20
220.9189
 42
0.02865290108
  0
VERTEX
  8
LAYER_2
 10
-21.984
 20
220.9436
 42
0.0806713287
  0
VERTEX
  8
LAYER_2
 10
-23.0569
 20
220.7735
 42
0.08357777431
  0
VERTEX
  8
LAYER_2
 10
-23.8317
 20
220.3573
 42
0.09024198391
  0
VERTEX
  8
LAYER_2
 10
-24.4186
 20
219.692
 42
0.07835989587
  0
VERTEX
  8
LAYER_2
 10
-24.7811
 20
218.801
 42
0.06322906838
  0
VERTEX
  8
LAYER_2
 10
-24.9151
 20
217.6012
 42
0.06782437491
  0
VERTEX
  8
LAYER_2
 10
-24.7438
 20
216.2613
 42
0.08255528881
  0
VERTEX
  8
LAYER_2
 10
-24.3104
 20
215.3428
 42
0.176800775
  0
VERTEX
  8
LAYER_2
 10
-22.8675
 20
214.3603
 42
0.06692285682
  0
VERTEX
  8
LAYER_2
 10
-21.984
 20
214.2463
 42
0.08462179993
  0
VERTEX
  8
LAYER_2
 10
-20.8976
 20
214.4204
 42
0.08609104881
  0
VERTEX
  8
LAYER_2
 10
-20.1139
 20
214.8669
 42
0.03054496576
  0
VERTEX
  8
LAYER_2
 10
-19.8205
 20
215.1386
  0
SEQEND
  0
ENDBLK
  0
BLOCK
  8
LAYER_2
  2
AIGNBL02020005
 70
64
 10
0
 20
0
 30
0
  3
AIGNBL02020005
  0
POLYLINE
  8
LAYER_2
 40
0.05
 41
0.05
 66
1
 10
0
 20
0
 30
0
 70
1
  0
VERTEX
  8
LAYER_2
 10
0.3288
 20
212.6805
  0
VERTEX
  8
LAYER_2
 10
0.0009
 20
212.6805
  0
VERTEX
  8
LAYER_2
 10
-0.2479
 20
211.9109
  0
VERTEX
  8
LAYER_2
 10
-0.5066
 20
212.6805
  0
VERTEX
  8
LAYER_2
 10
-0.8342
 20
212.6805
  0
VERTEX
  8
LAYER_2
 10
-0.4084
 20
211.5234
  0
VERTEX
  8
LAYER_2
 10
-0.4611
 20
211.3704
 42
-0.3961336399
  0
VERTEX
  8
LAYER_2
 10
-0.6165
 20
211.2581
  0
VERTEX
  8
LAYER_2
 10
-0.6882
 20
211.2581
  0
VERTEX
  8
LAYER_2
 10
-0.6882
 20
210.9783
  0
VERTEX
  8
LAYER_2
 10
-0.5662
 20
210.9783
 42
0.2034440672
  0
VERTEX
  8
LAYER_2
 10
-0.2985
 20
211.0741
 42
0.1004639661
  0
VERTEX
  8
LAYER_2
 10
-0.2048
 20
211.2343
  0
SEQEND
  0
POLYLINE
  8
LAYER_2
 40
0.05
 41
0.05
 66
1
 10
0
 20
0
 30
0
 70
1
  0
VERTEX
  8
LAYER_2
 10
-0.8704
 20
211.4352
  0
VERTEX
  8
LAYER_2
 10
-0.8704
 20
211.6977
  0
VERTEX
  8
LAYER_2
 10
-0.9899
 20
211.6977
 42
-0.4751531158
  0
VERTEX
  8
LAYER_2
 10
-1.0998
 20
211.8103
  0
VERTEX
  8
LAYER_2
 10
-1.0998
 20
213.137
  0
VERTEX
  8
LAYER_2
 10
-1.4109
 20
213.137
  0
VERTEX
  8
LAYER_2
 10
-1.4109
 20
211.7914
 42
0.2572712742
  0
VERTEX
  8
LAYER_2
 10
-1.2491
 20
211.4844
 42
0.1351549622
  0
VERTEX
  8
LAYER_2
 10
-1.0475
 20
211.4352
  0
SEQEND
  0
POLYLINE
  8
LAYER_2
 40
0.05
 41
0.05
 66
1
 10
0
 20
0
 30
0
 70
1
  0
VERTEX
  8
LAYER_2
 10
-1.9739
 20
211.894
 42
-0.2469446344
  0
VERTEX
  8
LAYER_2
 10
-2.0214
 20
211.7363
 42
-0.2123665607
  0
VERTEX
  8
LAYER_2
 10
-2.2057
 20
211.6763
 42
-0.2053009356
  0
VERTEX
  8
LAYER_2
 10
-2.3584
 20
211.723
 42
-0.206083917
  0
VERTEX
  8
LAYER_2
 10
-2.3949
 20
211.8175
 42
-0.4725867343
  0
VERTEX
  8
LAYER_2
 10
-2.2105
 20
211.9609
  0
VERTEX
  8
LAYER_2
 10
-1.9739
 20
211.9609
  0
SEQEND
  0
POLYLINE
  8
LAYER_2
 40
0.05
 41
0.05
 66
1
 10
0
 20
0
 30
0
 70
1
  0
VERTEX
  8
LAYER_2
 10
-1.6624
 20
211.4352
  0
VERTEX
  8
LAYER_2
 10
-1.6624
 20
212.2551
 42
0.2451162416
  0
VERTEX
  8
LAYER_2
 10
-1.8225
 20
212.6039
 42
0.1630344424
  0
VERTEX
  8
LAYER_2
 10
-2.194
 20
212.6947
 42
0.223003002
  0
VERTEX
  8
LAYER_2
 10
-2.6298
 20
212.5302
 42
0.006267388191
  0
VERTEX
  8
LAYER_2
 10
-2.6412
 20
212.5179
  0
VERTEX
  8
LAYER_2
 10
-2.4452
 20
212.3243
 42
-0.2474228759
  0
VERTEX
  8
LAYER_2
 10
-2.2057
 20
212.4322
 42
-0.1875116517
  0
VERTEX
  8
LAYER_2
 10
-2.0297
 20
212.3865
 42
-0.2385471677
  0
VERTEX
  8
LAYER_2
 10
-1.9739
 20
212.2358
  0
VERTEX
  8
LAYER_2
 10
-1.9739
 20
212.1738
  0
VERTEX
  8
LAYER_2
 10
-2.2633
 20
212.1738
 42
0.2343493414
  0
VERTEX
  8
LAYER_2
 10
-2.6354
 20
212.0142
 42
0.1534284984
  0
VERTEX
  8
LAYER_2
 10
-2.6942
 20
211.8127
 42
0.1895201048
  0
VERTEX
  8
LAYER_2
 10
-2.5912
 20
211.533
 42
0.2074502918
  0
VERTEX
  8
LAYER_2
 10
-2.2729
 20
211.4228
 42
0.2214267061
  0
VERTEX
  8
LAYER_2
 10
-1.9663
 20
211.5426
  0
VERTEX
  8
LAYER_2
 10
-1.9663
 20
211.4352
  0
SEQEND
  0
POLYLINE
  8
LAYER_2
 40
0.05
 41
0.05
 66
1
 10
0
 20
0
 30
0
 70
1
  0
VERTEX
  8
LAYER_2
 10
-2.8758
 20
211.4352
  0
VERTEX
  8
LAYER_2
 10
-2.8758
 20
211.6977
  0
VERTEX
  8
LAYER_2
 10
-2.9884
 20
211.6977
 42
-0.4616084329
  0
VERTEX
  8
LAYER_2
 10
-3.0963
 20
211.8103
  0
VERTEX
  8
LAYER_2
 10
-3.0963
 20
212.4081
  0
VERTEX
  8
LAYER_2
 10
-2.8758
 20
212.4081
  0
VERTEX
  8
LAYER_2
 10
-2.8758
 20
212.6444
  0
VERTEX
  8
LAYER_2
 10
-3.0963
 20
212.6444
  0
VERTEX
  8
LAYER_2
 10
-3.0963
 20
213.0126
  0
VERTEX
  8
LAYER_2
 10
-3.407
 20
213.0126
  0
VERTEX
  8
LAYER_2
 10
-3.407
 20
212.6444
  0
VERTEX
  8
LAYER_2
 10
-3.539
 20
212.6444
  0
VERTEX
  8
LAYER_2
 10
-3.539
 20
212.4081
  0
VERTEX
  8
LAYER_2
 10
-3.407
 20
212.4081
  0
VERTEX
  8
LAYER_2
 10
-3.407
 20
211.7914
 42
0.2563568817
  0
VERTEX
  8
LAYER_2
 10
-3.2458
 20
211.4844
 42
0.1357760723
  0
VERTEX
  8
LAYER_2
 10
-3.0456
 20
211.4352
  0
SEQEND
  0
POLYLINE
  8
LAYER_2
 40
0.05
 41
0.05
 66
1
 10
0
 20
0
 30
0
 70
1
  0
VERTEX
  8
LAYER_2
 10
-3.8091
 20
213.137
  0
VERTEX
  8
LAYER_2
 10
-4.1419
 20
213.137
  0
VERTEX
  8
LAYER_2
 10
-4.1419
 20
211.4352
  0
VERTEX
  8
LAYER_2
 10
-3.8091
 20
211.4352
  0
SEQEND
  0
POLYLINE
  8
LAYER_2
 40
0.05
 41
0.05
 66
1
 10
0
 20
0
 30
0
 70
1
  0
VERTEX
  8
LAYER_2
 10
-5.0562
 20
211.4352
  0
VERTEX
  8
LAYER_2
 10
-5.0562
 20
212.231
 42
0.2072987281
  0
VERTEX
  8
LAYER_2
 10
-5.183
 20
212.5844
 42
0.2031043538
  0
VERTEX
  8
LAYER_2
 10
-5.4775
 20
212.6947
 42
0.201378382
  0
VERTEX
  8
LAYER_2
 10
-5.7886
 20
212.5658
  0
VERTEX
  8
LAYER_2
 10
-5.7886
 20
212.6805
  0
VERTEX
  8
LAYER_2
 10
-6.0925
 20
212.6805
  0
VERTEX
  8
LAYER_2
 10
-6.0925
 20
211.4352
  0
VERTEX
  8
LAYER_2
 10
-5.7814
 20
211.4352
  0
VERTEX
  8
LAYER_2
 10
-5.7814
 20
212.1882
 42
-0.4179312156
  0
VERTEX
  8
LAYER_2
 10
-5.573
 20
212.4149
 42
-0.4343639015
  0
VERTEX
  8
LAYER_2
 10
-5.3673
 20
212.1882
  0
VERTEX
  8
LAYER_2
 10
-5.3673
 20
211.4352
  0
SEQEND
  0
POLYLINE
  8
LAYER_2
 40
0.05
 41
0.05
 66
1
 10
0
 20
0
 30
0
 70
1
  0
VERTEX
  8
LAYER_2
 10
-6.437
 20
213.1467
  0
VERTEX
  8
LAYER_2
 10
-6.7553
 20
213.1467
  0
VERTEX
  8
LAYER_2
 10
-6.7553
 20
212.8931
  0
VERTEX
  8
LAYER_2
 10
-6.437
 20
212.8931
  0
SEQEND
  0
POLYLINE
  8
LAYER_2
 40
0.05
 41
0.05
 66
1
 10
0
 20
0
 30
0
 70
1
  0
VERTEX
  8
LAYER_2
 10
-6.4394
 20
212.6444
  0
VERTEX
  8
LAYER_2
 10
-6.7508
 20
212.6444
  0
VERTEX
  8
LAYER_2
 10
-6.7508
 20
211.4352
  0
VERTEX
  8
LAYER_2
 10
-6.4394
 20
211.4352
  0
SEQEND
  0
POLYLINE
  8
LAYER_2
 40
0.05
 41
0.05
 66
1
 10
0
 20
0
 30
0
  0
VERTEX
  8
LAYER_2
 10
-7.8994
 20
212.1738
  0
VERTEX
  8
LAYER_2
 10
-8.3735
 20
212.1738
 42
-0.1150247832
  0
VERTEX
  8
LAYER_2
 10
-8.3445
 20
212.3074
 42
-0.3021002553
  0
VERTEX
  8
LAYER_2
 10
-8.1365
 20
212.4363
 42
-0.2972451875
  0
VERTEX
  8
LAYER_2
 10
-7.9284
 20
212.3074
 42
-0.09898717384
  0
VERTEX
  8
LAYER_2
 10
-7.8994
 20
212.1738
  0
SEQEND
  0
POLYLINE
  8
LAYER_2
 40
0.05
 41
0.05
 66
1
 10
0
 20
0
 30
0
 70
1
  0
VERTEX
  8
LAYER_2
 10
-7.5932
 20
211.9609
  0
VERTEX
  8
LAYER_2
 10
-7.5932
 20
212.0925
 42
0.1892091988
  0
VERTEX
  8
LAYER_2
 10
-7.7571
 20
212.5503
 42
0.2074689034
  0
VERTEX
  8
LAYER_2
 10
-8.1365
 20
212.6947
 42
0.212635805
  0
VERTEX
  8
LAYER_2
 10
-8.5293
 20
212.5292
 42
0.1815550622
  0
VERTEX
  8
LAYER_2
 10
-8.6787
 20
212.1059
 42
0.01190200981
  0
VERTEX
  8
LAYER_2
 10
-8.6797
 20
212.0591
 42
0.1802893809
  0
VERTEX
  8
LAYER_2
 10
-8.5263
 20
211.5744
 42
0.2020162133
  0
VERTEX
  8
LAYER_2
 10
-8.158
 20
211.4223
 42
0.01695408336
  0
VERTEX
  8
LAYER_2
 10
-8.103
 20
211.4207
 42
0.2069028033
  0
VERTEX
  8
LAYER_2
 10
-7.6557
 20
211.5904
 42
0.01111068861
  0
VERTEX
  8
LAYER_2
 10
-7.629
 20
211.6167
  0
VERTEX
  8
LAYER_2
 10
-7.8181
 20
211.801
 42
-0.224324849
  0
VERTEX
  8
LAYER_2
 10
-8.1003
 20
211.6839
 42
-0.4264622019
  0
VERTEX
  8
LAYER_2
 10
-8.3735
 20
211.9609
  0
SEQEND
  0
POLYLINE
  8
LAYER_2
 40
0.05
 41
0.05
 66
1
 10
0
 20
0
 30
0
  0
VERTEX
  8
LAYER_2
 10
-9.2778
 20
212.0591
 42
-0.1438386142
  0
VERTEX
  8
LAYER_2
 10
-9.3235
 20
211.7869
 42
-0.2886460427
  0
VERTEX
  8
LAYER_2
 10
-9.4911
 20
211.7004
 42
-0.3841580528
  0
VERTEX
  8
LAYER_2
 10
-9.6851
 20
211.8609
 42
-0.05455021257
  0
VERTEX
  8
LAYER_2
 10
-9.7016
 20
212.0591
 42
-0.1483049254
  0
VERTEX
  8
LAYER_2
 10
-9.6559
 20
212.3323
 42
-0.2855556046
  0
VERTEX
  8
LAYER_2
 10
-9.4911
 20
212.4149
 42
-0.3794480357
  0
VERTEX
  8
LAYER_2
 10
-9.2951
 20
212.2564
 42
-0.05697683845
  0
VERTEX
  8
LAYER_2
 10
-9.2778
 20
212.0591
  0
SEQEND
  0
POLYLINE
  8
LAYER_2
 40
0.05
 41
0.05
 66
1
 10
0
 20
0
 30
0
 70
1
  0
VERTEX
  8
LAYER_2
 10
-8.9667
 20
211.4352
  0
VERTEX
  8
LAYER_2
 10
-8.9667
 20
213.137
  0
VERTEX
  8
LAYER_2
 10
-9.2778
 20
213.137
  0
VERTEX
  8
LAYER_2
 10
-9.2778
 20
212.5707
 42
0.2297998422
  0
VERTEX
  8
LAYER_2
 10
-9.582
 20
212.6947
 42
0.1954770263
  0
VERTEX
  8
LAYER_2
 10
-9.8835
 20
212.5824
 42
0.1230294745
  0
VERTEX
  8
LAYER_2
 10
-9.9795
 20
212.4101
 42
0.0747779445
  0
VERTEX
  8
LAYER_2
 10
-10.013
 20
212.0591
 42
0.0994726102
  0
VERTEX
  8
LAYER_2
 10
-9.9681
 20
211.6704
 42
0.1089535567
  0
VERTEX
  8
LAYER_2
 10
-9.8835
 20
211.533
 42
0.2047870903
  0
VERTEX
  8
LAYER_2
 10
-9.5796
 20
211.4207
 42
0.2301632332
  0
VERTEX
  8
LAYER_2
 10
-9.2709
 20
211.5523
  0
VERTEX
  8
LAYER_2
 10
-9.2709
 20
211.4352
  0
SEQEND
  0
POLYLINE
  8
LAYER_2
 40
0.05
 41
0.05
 66
1
 10
0
 20
0
 30
0
 70
1
  0
VERTEX
  8
LAYER_2
 10
-10.6062
 20
211.894
 42
-0.2466163696
  0
VERTEX
  8
LAYER_2
 10
-10.6541
 20
211.7363
 42
-0.212724989
  0
VERTEX
  8
LAYER_2
 10
-10.8384
 20
211.6763
 42
-0.2058776096
  0
VERTEX
  8
LAYER_2
 10
-10.9909
 20
211.723
 42
-0.205582218
  0
VERTEX
  8
LAYER_2
 10
-11.0272
 20
211.8175
 42
-0.4728058788
  0
VERTEX
  8
LAYER_2
 10
-10.8433
 20
211.9609
  0
VERTEX
  8
LAYER_2
 10
-10.6062
 20
211.9609
  0
SEQEND
  0
POLYLINE
  8
LAYER_2
 40
0.05
 41
0.05
 66
1
 10
0
 20
0
 30
0
 70
1
  0
VERTEX
  8
LAYER_2
 10
-10.2951
 20
211.4352
  0
VERTEX
  8
LAYER_2
 10
-10.2951
 20
212.2551
 42
0.2450199827
  0
VERTEX
  8
LAYER_2
 10
-10.455
 20
212.6039
 42
0.1631220144
  0
VERTEX
  8
LAYER_2
 10
-10.8267
 20
212.6947
 42
0.223003002
  0
VERTEX
  8
LAYER_2
 10
-11.2625
 20
212.5302
 42
0.006267388191
  0
VERTEX
  8
LAYER_2
 10
-11.2739
 20
212.5179
  0
VERTEX
  8
LAYER_2
 10
-11.0779
 20
212.3243
 42
-0.2470834876
  0
VERTEX
  8
LAYER_2
 10
-10.8384
 20
212.4322
 42
-0.1872740545
  0
VERTEX
  8
LAYER_2
 10
-10.6621
 20
212.3865
 42
-0.238797369
  0
VERTEX
  8
LAYER_2
 10
-10.6062
 20
212.2358
  0
VERTEX
  8
LAYER_2
 10
-10.6062
 20
212.1738
  0
VERTEX
  8
LAYER_2
 10
-10.896
 20
212.1738
 42
0.2346153399
  0
VERTEX
  8
LAYER_2
 10
-11.268
 20
212.0142
 42
0.1531846975
  0
VERTEX
  8
LAYER_2
 10
-11.3266
 20
211.8127
 42
0.1894880782
  0
VERTEX
  8
LAYER_2
 10
-11.2239
 20
211.533
 42
0.2078362131
  0
VERTEX
  8
LAYER_2
 10
-10.9053
 20
211.4228
 42
0.2218282602
  0
VERTEX
  8
LAYER_2
 10
-10.599
 20
211.5426
  0
VERTEX
  8
LAYER_2
 10
-10.599
 20
211.4352
  0
SEQEND
  0
POLYLINE
  8
LAYER_2
 40
0.05
 41
0.05
 66
1
 10
0
 20
0
 30
0
 70
1
  0
VERTEX
  8
LAYER_2
 10
-11.5733
 20
211.4352
  0
VERTEX
  8
LAYER_2
 10
-11.5733
 20
212.231
 42
0.205542241
  0
VERTEX
  8
LAYER_2
 10
-11.7097
 20
212.5844
 42
0.1987814349
  0
VERTEX
  8
LAYER_2
 10
-12.016
 20
212.6947
 42
0.2182066523
  0
VERTEX
  8
LAYER_2
 10
-12.3894
 20
212.5369
 42
0.2492914965
  0
VERTEX
  8
LAYER_2
 10
-12.7198
 20
212.6947
 42
0.1963594215
  0
VERTEX
  8
LAYER_2
 10
-13.0309
 20
212.5658
  0
VERTEX
  8
LAYER_2
 10
-13.0309
 20
212.6805
  0
VERTEX
  8
LAYER_2
 10
-13.3348
 20
212.6805
  0
VERTEX
  8
LAYER_2
 10
-13.3348
 20
211.4352
  0
VERTEX
  8
LAYER_2
 10
-13.0233
 20
211.4352
  0
VERTEX
  8
LAYER_2
 10
-13.0233
 20
212.1882
 42
-0.4178253314
  0
VERTEX
  8
LAYER_2
 10
-12.8153
 20
212.4149
 42
-0.4343639015
  0
VERTEX
  8
LAYER_2
 10
-12.6096
 20
212.1882
  0
VERTEX
  8
LAYER_2
 10
-12.6096
 20
211.4352
  0
VERTEX
  8
LAYER_2
 10
-12.2985
 20
211.4352
  0
VERTEX
  8
LAYER_2
 10
-12.2985
 20
212.1951
 42
-0.4176164983
  0
VERTEX
  8
LAYER_2
 10
-12.0904
 20
212.4149
 42
-0.434797635
  0
VERTEX
  8
LAYER_2
 10
-11.8844
 20
212.1882
  0
VERTEX
  8
LAYER_2
 10
-11.8844
 20
211.4352
  0
SEQEND
  0
POLYLINE
  8
LAYER_2
 40
0.05
 41
0.05
 66
1
 10
0
 20
0
 30
0
  0
VERTEX
  8
LAYER_2
 10
-13.8973
 20
212.0229
 42
-0.1159462989
  0
VERTEX
  8
LAYER_2
 10
-13.9445
 20
211.7201
 42
-0.3129536504
  0
VERTEX
  8
LAYER_2
 10
-14.1915
 20
211.5736
 42
-0.314965659
  0
VERTEX
  8
LAYER_2
 10
-14.446
 20
211.7323
 42
-0.1053090454
  0
VERTEX
  8
LAYER_2
 10
-14.4882
 20
212.0229
 42
-0.113954245
  0
VERTEX
  8
LAYER_2
 10
-14.4424
 20
212.3219
 42
-0.3163619605
  0
VERTEX
  8
LAYER_2
 10
-14.1915
 20
212.4725
 42
-0.3164516036
  0
VERTEX
  8
LAYER_2
 10
-13.9392
 20
212.3138
 42
-0.103439187
  0
VERTEX
  8
LAYER_2
 10
-13.8973
 20
212.0229
  0
SEQEND
  0
POLYLINE
  8
LAYER_2
 40
0.05
 41
0.05
 66
1
 10
0
 20
0
 30
0
 70
1
  0
VERTEX
  8
LAYER_2
 10
-13.7247
 20
211.4352
  0
VERTEX
  8
LAYER_2
 10
-13.7247
 20
213.137
  0
VERTEX
  8
LAYER_2
 10
-13.8973
 20
213.137
  0
VERTEX
  8
LAYER_2
 10
-13.8973
 20
212.4749
 42
0.2525818121
  0
VERTEX
  8
LAYER_2
 10
-14.2298
 20
212.6258
 42
0.1886393528
  0
VERTEX
  8
LAYER_2
 10
-14.5171
 20
212.5224
 42
0.1172978386
  0
VERTEX
  8
LAYER_2
 10
-14.6205
 20
212.3434
 42
0.07876818405
  0
VERTEX
  8
LAYER_2
 10
-14.6608
 20
212.0229
 42
0.09207329595
  0
VERTEX
  8
LAYER_2
 10
-14.6127
 20
211.6805
 42
0.1077667615
  0
VERTEX
  8
LAYER_2
 10
-14.5171
 20
211.5234
 42
0.198210181
  0
VERTEX
  8
LAYER_2
 10
-14.2298
 20
211.4207
 42
0.2515984765
  0
VERTEX
  8
LAYER_2
 10
-13.8949
 20
211.5761
  0
VERTEX
  8
LAYER_2
 10
-13.8949
 20
211.4352
  0
SEQEND
  0
POLYLINE
  8
LAYER_2
 40
0.05
 41
0.05
 66
1
 10
0
 20
0
 30
0
 70
1
  0
VERTEX
  8
LAYER_2
 10
-15.0173
 20
211.4352
  0
VERTEX
  8
LAYER_2
 10
-15.0173
 20
212.1882
 42
0.2025955741
  0
VERTEX
  8
LAYER_2
 10
-15.1393
 20
212.5156
 42
0.2044555257
  0
VERTEX
  8
LAYER_2
 10
-15.4411
 20
212.6258
 42
0.2165707378
  0
VERTEX
  8
LAYER_2
 10
-15.7711
 20
212.4818
  0
VERTEX
  8
LAYER_2
 10
-15.7711
 20
212.6113
  0
VERTEX
  8
LAYER_2
 10
-15.9434
 20
212.6113
  0
VERTEX
  8
LAYER_2
 10
-15.9434
 20
211.4352
  0
VERTEX
  8
LAYER_2
 10
-15.7711
 20
211.4352
  0
VERTEX
  8
LAYER_2
 10
-15.7711
 20
212.1593
 42
-0.2837547598
  0
VERTEX
  8
LAYER_2
 10
-15.6189
 20
212.4442
 42
-0.1086336204
  0
VERTEX
  8
LAYER_2
 10
-15.479
 20
212.4725
 42
-0.442304779
  0
VERTEX
  8
LAYER_2
 10
-15.1896
 20
212.1593
  0
VERTEX
  8
LAYER_2
 10
-15.1896
 20
211.4352
  0
SEQEND
  0
POLYLINE
  8
LAYER_2
 40
0.05
 41
0.05
 66
1
 10
0
 20
0
 30
0
 70
1
  0
VERTEX
  8
LAYER_2
 10
-16.5346
 20
211.8506
 42
-0.2101171453
  0
VERTEX
  8
LAYER_2
 10
-16.5945
 20
211.6477
 42
-0.2061049303
  0
VERTEX
  8
LAYER_2
 10
-16.8553
 20
211.5688
 42
-0.162375608
  0
VERTEX
  8
LAYER_2
 10
-17.0584
 20
211.6151
 42
-0.2625865829
  0
VERTEX
  8
LAYER_2
 10
-17.1281
 20
211.77
 42
-0.3766203625
  0
VERTEX
  8
LAYER_2
 10
-16.9692
 20
211.9668
 42
-0.05119198821
  0
VERTEX
  8
LAYER_2
 10
-16.8625
 20
211.9774
  0
VERTEX
  8
LAYER_2
 10
-16.5346
 20
211.9774
  0
SEQEND
  0
POLYLINE
  8
LAYER_2
 40
0.05
 41
0.05
 66
1
 10
0
 20
0
 30
0
 70
1
  0
VERTEX
  8
LAYER_2
 10
-16.362
 20
211.4352
  0
VERTEX
  8
LAYER_2
 10
-16.362
 20
212.233
 42
0.2623610217
  0
VERTEX
  8
LAYER_2
 10
-16.5224
 20
212.5561
 42
0.1450933816
  0
VERTEX
  8
LAYER_2
 10
-16.8336
 20
212.6258
 42
0.2362276322
  0
VERTEX
  8
LAYER_2
 10
-17.2355
 20
212.4672
 42
0.01170794038
  0
VERTEX
  8
LAYER_2
 10
-17.2501
 20
212.4487
  0
VERTEX
  8
LAYER_2
 10
-17.133
 20
212.3409
 42
-0.2755800686
  0
VERTEX
  8
LAYER_2
 10
-16.8364
 20
212.4776
 42
-0.1517468402
  0
VERTEX
  8
LAYER_2
 10
-16.6283
 20
212.4308
 42
-0.2800643637
  0
VERTEX
  8
LAYER_2
 10
-16.5346
 20
212.2193
  0
VERTEX
  8
LAYER_2
 10
-16.5346
 20
212.1066
  0
VERTEX
  8
LAYER_2
 10
-16.8863
 20
212.1066
 42
0.2378691362
  0
VERTEX
  8
LAYER_2
 10
-17.2451
 20
211.9523
 42
0.1477379502
  0
VERTEX
  8
LAYER_2
 10
-17.2956
 20
211.7673
 42
0.1983884986
  0
VERTEX
  8
LAYER_2
 10
-17.2071
 20
211.5282
 42
0.2222408302
  0
VERTEX
  8
LAYER_2
 10
-16.8742
 20
211.4207
 42
0.21971579
  0
VERTEX
  8
LAYER_2
 10
-16.5346
 20
211.5471
  0
VERTEX
  8
LAYER_2
 10
-16.5346
 20
211.4352
  0
SEQEND
  0
POLYLINE
  8
LAYER_2
 40
0.05
 41
0.05
 66
1
 10
0
 20
0
 30
0
 70
1
  0
VERTEX
  8
LAYER_2
 10
-17.6211
 20
211.4352
  0
VERTEX
  8
LAYER_2
 10
-17.6211
 20
212.1903
 42
0.2366048602
  0
VERTEX
  8
LAYER_2
 10
-17.7848
 20
212.5524
 42
0.1585996094
  0
VERTEX
  8
LAYER_2
 10
-18.0449
 20
212.6258
 42
0.2174282511
  0
VERTEX
  8
LAYER_2
 10
-18.3749
 20
212.4818
  0
VERTEX
  8
LAYER_2
 10
-18.3749
 20
213.137
  0
VERTEX
  8
LAYER_2
 10
-18.5475
 20
213.137
  0
VERTEX
  8
LAYER_2
 10
-18.5475
 20
211.4352
  0
VERTEX
  8
LAYER_2
 10
-18.3749
 20
211.4352
  0
VERTEX
  8
LAYER_2
 10
-18.3749
 20
212.1617
 42
-0.2889308341
  0
VERTEX
  8
LAYER_2
 10
-18.2221
 20
212.4453
 42
-0.1047577161
  0
VERTEX
  8
LAYER_2
 10
-18.0807
 20
212.4725
 42
-0.4463558923
  0
VERTEX
  8
LAYER_2
 10
-17.7934
 20
212.1617
  0
VERTEX
  8
LAYER_2
 10
-17.7934
 20
211.4352
  0
SEQEND
  0
ENDBLK
  0
BLOCK
  8
LAYER_2
  2
AIGNBL02020007
 70
64
 10
0
 20
0
 30
0
  3
AIGNBL02020007
  0
INSERT
  8
LAYER_2
  2
AIGNBL02030008
 10
0
 20
0
 30
0
  0
ENDBLK
  0
BLOCK
  8
LAYER_2
  2
AIGNBL02020010
 70
64
 10
0
 20
0
 30
0
  3
AIGNBL02020010
  0
INSERT
  8
LAYER_2
  2
AIGNBL02030011
 10
0
 20
0
 30
0
  0
INSERT
  8
LAYER_2
  2
AIGNBL02030012
 10
0
 20
0
 30
0
  0
INSERT
  8
LAYER_2
  2
AIGNBL02030013
 10
0
 20
0
 30
0
  0
INSERT
  8
LAYER_2
  2
AIGNBL02030014
 10
0
 20
0
 30
0
  0
INSERT
  8
LAYER_2
  2
AIGNBL02030015
 10
0
 20
0
 30
0
  0
INSERT
  8
LAYER_2
  2
AIGNBL02030016
 10
0
 20
0
 30
0
  0
INSERT
  8
LAYER_2
  2
AIGNBL02030017
 10
0
 20
0
 30
0
  0
INSERT
  8
LAYER_2
  2
AIGNBL02030018
 10
0
 20
0
 30
0
  0
INSERT
  8
LAYER_2
  2
AIGNBL02030019
 10
0
 20
0
 30
0
  0
INSERT
  8
LAYER_2
  2
AIGNBL0203001A
 10
0
 20
0
 30
0
  0
INSERT
  8
LAYER_2
  2
AIGNBL0203001B
 10
0
 20
0
 30
0
  0
INSERT
  8
LAYER_2
  2
AIGNBL0203001C
 10
0
 20
0
 30
0
  0
INSERT
  8
LAYER_2
  2
AIGNBL0203001D
 10
0
 20
0
 30
0
  0
INSERT
  8
LAYER_2
  2
AIGNBL0203001E
 10
0
 20
0
 30
0
  0
INSERT
  8
LAYER_2
  2
AIGNBL0203001F
 10
0
 20
0
 30
0
  0
INSERT
  8
LAYER_2
  2
AIGNBL02030020
 10
0
 20
0
 30
0
  0
INSERT
  8
LAYER_2
  2
AIGNBL02030021
 10
0
 20
0
 30
0
  0
INSERT
  8
LAYER_2
  2
AIGNBL02030022
 10
0
 20
0
 30
0
  0
INSERT
  8
LAYER_2
  2
AIGNBL02030023
 10
0
 20
0
 30
0
  0
INSERT
  8
LAYER_2
  2
AIGNBL02030024
 10
0
 20
0
 30
0
  0
INSERT
  8
LAYER_2
  2
AIGNBL02030025
 10
0
 20
0
 30
0
  0
INSERT
  8
LAYER_2
  2
AIGNBL02030026
 10
0
 20
0
 30
0
  0
INSERT
  8
LAYER_2
  2
AIGNBL02030027
 10
0
 20
0
 30
0
  0
ENDBLK
  0
BLOCK
  8
LAYER_2
  2
AIGNBL02020034
 70
64
 10
0
 20
0
 30
0
  3
AIGNBL02020034
  0
POLYLINE
  8
LAYER_2
 40
0.1411
 41
0.1411
 66
1
 10
0
 20
0
 30
0
  0
VERTEX
  8
LAYER_2
 10
45.5088
 20
88.6747
  0
VERTEX
  8
LAYER_2
 10
45.5282
 20
88.5117
  0
SEQEND
  0
POLYLINE
  8
LAYER_2
 40
0.1411
 41
0.1411
 66
1
 10
0
 20
0
 30
0
  0
VERTEX
  8
LAYER_2
 10
27.5909
 20
95.6329
  0
VERTEX
  8
LAYER_2
 10
36.1186
 20
92.762
  0
SEQEND
  0
POLYLINE
  8
LAYER_2
 40
0.1411
 41
0.1411
 66
1
 10
0
 20
0
 30
0
  0
VERTEX
  8
LAYER_2
 10
36.2406
 20
92.7923
  0
VERTEX
  8
LAYER_2
 10
40.5724
 20
97.5767
  0
SEQEND
  0
POLYLINE
  8
LAYER_2
 40
0.1411
 41
0.1411
 66
1
 10
0
 20
0
 30
0
 70
1
  0
VERTEX
  8
LAYER_2
 10
35.915
 20
94.8
  0
VERTEX
  8
LAYER_2
 10
35.9496
 20
94.8367
  0
VERTEX
  8
LAYER_2
 10
35.9771
 20
94.8727
  0
VERTEX
  8
LAYER_2
 10
36.0046
 20
94.9122
 42
0.2185838227
  0
VERTEX
  8
LAYER_2
 10
36.079
 20
95.331
 42
0.1986765625
  0
VERTEX
  8
LAYER_2
 10
35.8176
 20
95.6268
 42
0.0216210742
  0
VERTEX
  8
LAYER_2
 10
35.7605
 20
95.6558
  0
VERTEX
  8
LAYER_2
 10
35.715
 20
95.6752
  0
VERTEX
  8
LAYER_2
 10
35.6698
 20
95.6908
 42
0.1314905539
  0
VERTEX
  8
LAYER_2
 10
34.9727
 20
95.7203
 42
0.08928205548
  0
VERTEX
  8
LAYER_2
 10
34.4492
 20
95.5179
  0
VERTEX
  8
LAYER_2
 10
34.403
 20
95.4869
  0
VERTEX
  8
LAYER_2
 10
34.3603
 20
95.4562
  0
VERTEX
  8
LAYER_2
 10
34.318
 20
95.4219
  0
VERTEX
  8
LAYER_2
 10
34.2792
 20
95.3884
 42
0.1848297019
  0
VERTEX
  8
LAYER_2
 10
34.042
 20
94.9581
 42
0.1687282343
  0
VERTEX
  8
LAYER_2
 10
34.1151
 20
94.6885
  0
VERTEX
  8
LAYER_2
 10
34.1497
 20
94.6427
 42
0.1690793235
  0
VERTEX
  8
LAYER_2
 10
34.6179
 20
94.4039
 42
0.1134973703
  0
VERTEX
  8
LAYER_2
 10
35.2902
 20
94.4426
 42
0.08942164756
  0
VERTEX
  8
LAYER_2
 10
35.7503
 20
94.6564
  0
VERTEX
  8
LAYER_2
 10
35.8127
 20
94.7005
  0
VERTEX
  8
LAYER_2
 10
35.8677
 20
94.7471
  0
SEQEND
  0
POLYLINE
  8
LAYER_2
 40
0.1411
 41
0.1411
 66
1
 10
0
 20
0
 30
0
  0
VERTEX
  8
LAYER_2
 10
27.5831
 20
95.6357
  0
VERTEX
  8
LAYER_2
 10
27.5873
 20
95.6325
  0
VERTEX
  8
LAYER_2
 10
27.5909
 20
95.6329
  0
SEQEND
  0
POLYLINE
  8
LAYER_2
 40
0.1411
 41
0.1411
 66
1
 10
0
 20
0
 30
0
  0
VERTEX
  8
LAYER_2
 10
40.5724
 20
97.5767
  0
VERTEX
  8
LAYER_2
 10
40.5759
 20
97.5771
  0
VERTEX
  8
LAYER_2
 10
40.5756
 20
97.5806
  0
SEQEND
  0
POLYLINE
  8
LAYER_2
 40
0.1411
 41
0.1411
 66
1
 10
0
 20
0
 30
0
  0
VERTEX
  8
LAYER_2
 10
36.1186
 20
92.762
  0
VERTEX
  8
LAYER_2
 10
36.1263
 20
92.7595
  0
VERTEX
  8
LAYER_2
 10
36.1411
 20
92.7542
  0
VERTEX
  8
LAYER_2
 10
36.1835
 20
92.7599
  0
VERTEX
  8
LAYER_2
 10
36.2008
 20
92.7655
  0
VERTEX
  8
LAYER_2
 10
36.2181
 20
92.7715
  0
VERTEX
  8
LAYER_2
 10
36.2378
 20
92.7849
  0
VERTEX
  8
LAYER_2
 10
36.241
 20
92.7888
  0
SEQEND
  0
POLYLINE
  8
LAYER_2
 40
0.1411
 41
0.1411
 66
1
 10
0
 20
0
 30
0
  0
VERTEX
  8
LAYER_2
 10
34.1303
 20
94.7943
  0
VERTEX
  8
LAYER_2
 10
34.1363
 20
94.7739
 42
0.2098117773
  0
VERTEX
  8
LAYER_2
 10
34.4456
 20
94.4739
 42
0.1338170087
  0
VERTEX
  8
LAYER_2
 10
35.0324
 20
94.4104
 42
0.1079826132
  0
VERTEX
  8
LAYER_2
 10
35.6909
 20
94.6324
 42
0.06051324993
  0
VERTEX
  8
LAYER_2
 10
35.8353
 20
94.7502
  0
VERTEX
  8
LAYER_2
 10
35.8794
 20
94.7954
  0
VERTEX
  8
LAYER_2
 10
35.9016
 20
94.8198
 42
0.205175823
  0
VERTEX
  8
LAYER_2
 10
36.042
 20
95.2043
  0
VERTEX
  8
LAYER_2
 10
36.0353
 20
95.2286
  0
SEQEND
  0
POLYLINE
  8
LAYER_2
 40
0.1411
 41
0.1411
 66
1
 10
0
 20
0
 30
0
  0
VERTEX
  8
LAYER_2
 10
40.5428
 20
97.6123
  0
VERTEX
  8
LAYER_2
 10
40.5498
 20
97.6134
  0
VERTEX
  8
LAYER_2
 10
40.5537
 20
97.6102
  0
VERTEX
  8
LAYER_2
 10
40.5572
 20
97.6106
  0
VERTEX
  8
LAYER_2
 10
40.5614
 20
97.6077
  0
VERTEX
  8
LAYER_2
 10
40.5653
 20
97.6046
  0
VERTEX
  8
LAYER_2
 10
40.5734
 20
97.5982
  0
VERTEX
  8
LAYER_2
 10
40.5756
 20
97.5806
  0
SEQEND
  0
POLYLINE
  8
LAYER_2
 40
0.1411
 41
0.1411
 66
1
 10
0
 20
0
 30
0
  0
VERTEX
  8
LAYER_2
 10
40.6151
 20
97.5824
  0
VERTEX
  8
LAYER_2
 10
40.5928
 20
97.5866
  0
VERTEX
  8
LAYER_2
 10
40.5791
 20
97.5813
  0
VERTEX
  8
LAYER_2
 10
40.5724
 20
97.5767
  0
SEQEND
  0
POLYLINE
  8
LAYER_2
 40
0.1411
 41
0.1411
 66
1
 10
0
 20
0
 30
0
  0
VERTEX
  8
LAYER_2
 10
40.5428
 20
97.6123
  0
VERTEX
  8
LAYER_2
 10
40.5435
 20
97.6339
  0
VERTEX
  8
LAYER_2
 10
40.5509
 20
97.66
  0
VERTEX
  8
LAYER_2
 10
40.5622
 20
97.6832
  0
VERTEX
  8
LAYER_2
 10
40.565
 20
97.6907
  0
VERTEX
  8
LAYER_2
 10
40.571
 20
97.6988
  0
SEQEND
  0
POLYLINE
  8
LAYER_2
 40
0.1411
 41
0.1411
 66
1
 10
0
 20
0
 30
0
  0
VERTEX
  8
LAYER_2
 10
36.2868
 20
92.7948
  0
VERTEX
  8
LAYER_2
 10
40.6151
 20
97.5824
  0
SEQEND
  0
POLYLINE
  8
LAYER_2
 40
0.1411
 41
0.1411
 66
1
 10
0
 20
0
 30
0
  0
VERTEX
  8
LAYER_2
 10
40.571
 20
97.6988
  0
VERTEX
  8
LAYER_2
 10
32.2948
 20
100.1534
  0
SEQEND
  0
POLYLINE
  8
LAYER_2
 40
0.1411
 41
0.1411
 66
1
 10
0
 20
0
 30
0
  0
VERTEX
  8
LAYER_2
 10
32.1138
 20
100.1082
  0
VERTEX
  8
LAYER_2
 10
27.5302
 20
95.7401
  0
SEQEND
  0
POLYLINE
  8
LAYER_2
 40
0.1411
 41
0.1411
 66
1
 10
0
 20
0
 30
0
  0
VERTEX
  8
LAYER_2
 10
36.0353
 20
95.2286
  0
VERTEX
  8
LAYER_2
 10
36.0275
 20
95.2597
 42
0.204634228
  0
VERTEX
  8
LAYER_2
 10
35.7277
 20
95.5712
 42
0.1374145527
  0
VERTEX
  8
LAYER_2
 10
35.1593
 20
95.6511
 42
0.1081272217
  0
VERTEX
  8
LAYER_2
 10
34.513
 20
95.447
 42
0.1508637335
  0
VERTEX
  8
LAYER_2
 10
34.1591
 20
95.0691
 42
0.1191332587
  0
VERTEX
  8
LAYER_2
 10
34.1226
 20
94.8257
  0
VERTEX
  8
LAYER_2
 10
34.1303
 20
94.7943
  0
SEQEND
  0
POLYLINE
  8
LAYER_2
 40
0.1411
 41
0.1411
 66
1
 10
0
 20
0
 30
0
  0
VERTEX
  8
LAYER_2
 10
32.7541
 20
97.9002
  0
VERTEX
  8
LAYER_2
 10
32.2183
 20
100.0599
  0
SEQEND
  0
POLYLINE
  8
LAYER_2
 40
0.1411
 41
0.1411
 66
1
 10
0
 20
0
 30
0
  0
VERTEX
  8
LAYER_2
 10
32.1756
 20
100.0483
  0
VERTEX
  8
LAYER_2
 10
27.5958
 20
95.6766
  0
SEQEND
  0
POLYLINE
  8
LAYER_2
 40
0.1411
 41
0.1411
 66
1
 10
0
 20
0
 30
0
  0
VERTEX
  8
LAYER_2
 10
32.7114
 20
97.8882
  0
VERTEX
  8
LAYER_2
 10
32.565
 20
97.7436
  0
VERTEX
  8
LAYER_2
 10
29.9358
 20
95.1404
  0
VERTEX
  8
LAYER_2
 10
29.71
 20
94.9171
  0
SEQEND
  0
POLYLINE
  8
LAYER_2
 40
0.1411
 41
0.1411
 66
1
 10
0
 20
0
 30
0
  0
VERTEX
  8
LAYER_2
 10
39.1024
 20
95.9532
  0
VERTEX
  8
LAYER_2
 10
38.5936
 20
96.1063
  0
VERTEX
  8
LAYER_2
 10
33.0677
 20
97.8268
  0
VERTEX
  8
LAYER_2
 10
32.8017
 20
97.9108
  0
SEQEND
  0
POLYLINE
  8
LAYER_2
 40
0.1411
 41
0.1411
 66
1
 10
0
 20
0
 30
0
  0
VERTEX
  8
LAYER_2
 10
40.5428
 20
97.6123
  0
VERTEX
  8
LAYER_2
 10
32.2659
 20
100.0708
  0
SEQEND
  0
POLYLINE
  8
LAYER_2
 40
0.1411
 41
0.1411
 66
1
 10
0
 20
0
 30
0
  0
VERTEX
  8
LAYER_2
 10
39.0396
 20
95.8841
  0
VERTEX
  8
LAYER_2
 10
38.6953
 20
95.9903
  0
VERTEX
  8
LAYER_2
 10
32.8437
 20
97.8085
  0
VERTEX
  8
LAYER_2
 10
32.7725
 20
97.8314
  0
VERTEX
  8
LAYER_2
 10
32.7379
 20
97.7947
  0
VERTEX
  8
LAYER_2
 10
29.9241
 20
95.0095
  0
VERTEX
  8
LAYER_2
 10
29.8038
 20
94.8864
  0
SEQEND
  0
POLYLINE
  8
LAYER_2
 40
0.1411
 41
0.1411
 66
1
 10
0
 20
0
 30
0
  0
VERTEX
  8
LAYER_2
 10
27.5831
 20
95.6357
  0
VERTEX
  8
LAYER_2
 10
27.5789
 20
95.6421
  0
VERTEX
  8
LAYER_2
 10
27.5835
 20
95.6608
  0
VERTEX
  8
LAYER_2
 10
27.5831
 20
95.6643
  0
VERTEX
  8
LAYER_2
 10
27.5898
 20
95.6689
  0
VERTEX
  8
LAYER_2
 10
27.5958
 20
95.6766
  0
SEQEND
  0
POLYLINE
  8
LAYER_2
 40
0.1411
 41
0.1411
 66
1
 10
0
 20
0
 30
0
  0
VERTEX
  8
LAYER_2
 10
32.8017
 20
97.9108
  0
VERTEX
  8
LAYER_2
 10
32.801
 20
97.8889
  0
VERTEX
  8
LAYER_2
 10
32.7968
 20
97.867
  0
VERTEX
  8
LAYER_2
 10
32.7848
 20
97.8476
  0
VERTEX
  8
LAYER_2
 10
32.7725
 20
97.8314
  0
VERTEX
  8
LAYER_2
 10
32.7651
 20
97.8342
  0
VERTEX
  8
LAYER_2
 10
32.7534
 20
97.8399
  0
VERTEX
  8
LAYER_2
 10
32.7375
 20
97.8522
  0
VERTEX
  8
LAYER_2
 10
32.7206
 20
97.8716
  0
VERTEX
  8
LAYER_2
 10
32.7114
 20
97.8882
  0
SEQEND
  0
POLYLINE
  8
LAYER_2
 40
0.1411
 41
0.1411
 66
1
 10
0
 20
0
 30
0
  0
VERTEX
  8
LAYER_2
 10
40.571
 20
97.6988
  0
VERTEX
  8
LAYER_2
 10
40.5826
 20
97.6928
 42
-0.5288472119
  0
VERTEX
  8
LAYER_2
 10
40.6211
 20
97.5901
  0
VERTEX
  8
LAYER_2
 10
40.6151
 20
97.5824
  0
SEQEND
  0
POLYLINE
  8
LAYER_2
 40
0.1411
 41
0.1411
 66
1
 10
0
 20
0
 30
0
  0
VERTEX
  8
LAYER_2
 10
32.1756
 20
100.0483
  0
VERTEX
  8
LAYER_2
 10
32.1657
 20
100.0684
  0
VERTEX
  8
LAYER_2
 10
32.1495
 20
100.0843
  0
VERTEX
  8
LAYER_2
 10
32.1212
 20
100.1058
  0
VERTEX
  8
LAYER_2
 10
32.1138
 20
100.1082
  0
VERTEX
  8
LAYER_2
 10
32.1202
 20
100.1163
  0
VERTEX
  8
LAYER_2
 10
32.1301
 20
100.1213
  0
VERTEX
  8
LAYER_2
 10
32.1399
 20
100.1298
  0
VERTEX
  8
LAYER_2
 10
32.1498
 20
100.1347
  0
VERTEX
  8
LAYER_2
 10
32.1738
 20
100.1449
  0
VERTEX
  8
LAYER_2
 10
32.1981
 20
100.1516
  0
VERTEX
  8
LAYER_2
 10
32.2511
 20
100.1583
  0
VERTEX
  8
LAYER_2
 10
32.262
 20
100.1562
  0
VERTEX
  8
LAYER_2
 10
32.2726
 20
100.1576
  0
VERTEX
  8
LAYER_2
 10
32.2839
 20
100.1555
  0
VERTEX
  8
LAYER_2
 10
32.2948
 20
100.1534
  0
SEQEND
  0
POLYLINE
  8
LAYER_2
 40
0.1411
 41
0.1411
 66
1
 10
0
 20
0
 30
0
  0
VERTEX
  8
LAYER_2
 10
27.5492
 20
95.6206
  0
VERTEX
  8
LAYER_2
 10
27.5383
 20
95.6227
  0
VERTEX
  8
LAYER_2
 10
27.5302
 20
95.6287
  0
VERTEX
  8
LAYER_2
 10
27.5009
 20
95.6608
  0
VERTEX
  8
LAYER_2
 10
27.4988
 20
95.6784
 42
-0.1842672154
  0
VERTEX
  8
LAYER_2
 10
27.5147
 20
95.72
  0
VERTEX
  8
LAYER_2
 10
27.5203
 20
95.7317
  0
VERTEX
  8
LAYER_2
 10
27.5302
 20
95.7401
  0
SEQEND
  0
POLYLINE
  8
LAYER_2
 40
0.1411
 41
0.1411
 66
1
 10
0
 20
0
 30
0
  0
VERTEX
  8
LAYER_2
 10
32.1756
 20
100.0483
  0
VERTEX
  8
LAYER_2
 10
32.178
 20
100.0557
 42
-0.2171216884
  0
VERTEX
  8
LAYER_2
 10
32.2546
 20
100.0765
  0
VERTEX
  8
LAYER_2
 10
32.2659
 20
100.0708
  0
SEQEND
  0
POLYLINE
  8
LAYER_2
 40
0.1411
 41
0.1411
 66
1
 10
0
 20
0
 30
0
  0
VERTEX
  8
LAYER_2
 10
25.2015
 20
95.4699
  0
VERTEX
  8
LAYER_2
 10
25.2103
 20
95.4569
  0
VERTEX
  8
LAYER_2
 10
25.2184
 20
95.4505
  0
VERTEX
  8
LAYER_2
 10
25.2259
 20
95.448
  0
SEQEND
  0
POLYLINE
  8
LAYER_2
 40
0.1411
 41
0.1411
 66
1
 10
0
 20
0
 30
0
  0
VERTEX
  8
LAYER_2
 10
32.2948
 20
100.1534
  0
VERTEX
  8
LAYER_2
 10
32.2825
 20
100.1375
  0
VERTEX
  8
LAYER_2
 10
32.2712
 20
100.1146
  0
VERTEX
  8
LAYER_2
 10
32.2669
 20
100.0924
  0
VERTEX
  8
LAYER_2
 10
32.2659
 20
100.0708
  0
SEQEND
  0
POLYLINE
  8
LAYER_2
 40
0.1411
 41
0.1411
 66
1
 10
0
 20
0
 30
0
  0
VERTEX
  8
LAYER_2
 10
36.0815
 20
92.7429
  0
VERTEX
  8
LAYER_2
 10
36.0963
 20
92.7412
 42
0.2382230472
  0
VERTEX
  8
LAYER_2
 10
36.2773
 20
92.7863
  0
VERTEX
  8
LAYER_2
 10
36.2868
 20
92.7948
  0
SEQEND
  0
POLYLINE
  8
LAYER_2
 40
0.1411
 41
0.1411
 66
1
 10
0
 20
0
 30
0
  0
VERTEX
  8
LAYER_2
 10
32.7114
 20
97.8882
  0
VERTEX
  8
LAYER_2
 10
32.7181
 20
97.8928
  0
VERTEX
  8
LAYER_2
 10
32.728
 20
97.8974
  0
VERTEX
  8
LAYER_2
 10
32.7559
 20
97.9048
  0
VERTEX
  8
LAYER_2
 10
32.7802
 20
97.9115
  0
VERTEX
  8
LAYER_2
 10
32.8017
 20
97.9108
  0
SEQEND
  0
POLYLINE
  8
LAYER_2
 40
0.1411
 41
0.1411
 66
1
 10
0
 20
0
 30
0
  0
VERTEX
  8
LAYER_2
 10
36.0815
 20
92.7429
  0
VERTEX
  8
LAYER_2
 10
36.1009
 20
92.7599
  0
VERTEX
  8
LAYER_2
 10
36.1186
 20
92.762
  0
SEQEND
  0
POLYLINE
  8
LAYER_2
 40
0.1411
 41
0.1411
 66
1
 10
0
 20
0
 30
0
  0
VERTEX
  8
LAYER_2
 10
36.241
 20
92.7888
  0
VERTEX
  8
LAYER_2
 10
36.2505
 20
92.7973
  0
VERTEX
  8
LAYER_2
 10
36.2717
 20
92.8001
  0
VERTEX
  8
LAYER_2
 10
36.2868
 20
92.7948
  0
SEQEND
  0
POLYLINE
  8
LAYER_2
 40
0.1411
 41
0.1411
 66
1
 10
0
 20
0
 30
0
  0
VERTEX
  8
LAYER_2
 10
27.5492
 20
95.6206
  0
VERTEX
  8
LAYER_2
 10
36.0815
 20
92.7429
  0
SEQEND
  0
POLYLINE
  8
LAYER_2
 40
0.1411
 41
0.1411
 66
1
 10
0
 20
0
 30
0
  0
VERTEX
  8
LAYER_2
 10
27.3196
 20
94.5675
  0
VERTEX
  8
LAYER_2
 10
45.488
 20
88.4994
  0
VERTEX
  8
LAYER_2
 10
45.4989
 20
88.4973
 42
0.2453251683
  0
VERTEX
  8
LAYER_2
 10
45.5684
 20
88.517
  0
VERTEX
  8
LAYER_2
 10
45.5779
 20
88.5255
  0
VERTEX
  8
LAYER_2
 10
50.2505
 20
94.5643
  0
SEQEND
  0
POLYLINE
  8
LAYER_2
 40
0.1411
 41
0.1411
 66
1
 10
0
 20
0
 30
0
  0
VERTEX
  8
LAYER_2
 10
25.2259
 20
95.448
  0
VERTEX
  8
LAYER_2
 10
45.452
 20
88.692
  0
VERTEX
  8
LAYER_2
 10
45.4636
 20
88.6864
 42
0.2183962282
  0
VERTEX
  8
LAYER_2
 10
45.5536
 20
88.7125
  0
VERTEX
  8
LAYER_2
 10
45.56
 20
88.7206
  0
VERTEX
  8
LAYER_2
 10
51.3438
 20
96.2143
  0
SEQEND
  0
ENDBLK
  0
BLOCK
  8
LAYER_2
  2
AIGNBL02020035
 70
64
 10
0
 20
0
 30
0
  3
AIGNBL02020035
  0
POLYLINE
  8
LAYER_2
 40
0.1411
 41
0.1411
 66
1
 10
0
 20
0
 30
0
  0
VERTEX
  8
LAYER_2
 10
36.651
 20
99.5339
  0
VERTEX
  8
LAYER_2
 10
36.6341
 20
99.5473
 42
0.1960119934
  0
VERTEX
  8
LAYER_2
 10
36.1949
 20
99.6671
 42
0.1126096605
  0
VERTEX
  8
LAYER_2
 10
35.9412
 20
99.5921
  0
VERTEX
  8
LAYER_2
 10
35.9123
 20
99.572
  0
SEQEND
  0
POLYLINE
  8
LAYER_2
 40
0.1411
 41
0.1411
 66
1
 10
0
 20
0
 30
0
 70
1
  0
VERTEX
  8
LAYER_2
 10
36.5935
 20
99.4994
  0
VERTEX
  8
LAYER_2
 10
36.5603
 20
99.4831
  0
VERTEX
  8
LAYER_2
 10
36.5233
 20
99.4697
  0
VERTEX
  8
LAYER_2
 10
36.481
 20
99.4574
 42
-0.2585152109
  0
VERTEX
  8
LAYER_2
 10
35.8635
 20
99.6268
 42
-0.02029662846
  0
VERTEX
  8
LAYER_2
 10
35.8491
 20
99.6493
  0
VERTEX
  8
LAYER_2
 10
35.8347
 20
99.6786
 42
-0.3548983776
  0
VERTEX
  8
LAYER_2
 10
35.9363
 20
99.9523
  0
VERTEX
  8
LAYER_2
 10
35.9656
 20
99.9721
  0
VERTEX
  8
LAYER_2
 10
35.9966
 20
99.989
  0
VERTEX
  8
LAYER_2
 10
36.0322
 20
100.0049
  0
VERTEX
  8
LAYER_2
 10
36.0693
 20
100.0183
 42
-0.2595502033
  0
VERTEX
  8
LAYER_2
 10
36.7055
 20
99.8845
 42
-0.02561556153
  0
VERTEX
  8
LAYER_2
 10
36.7293
 20
99.8542
  0
VERTEX
  8
LAYER_2
 10
36.7389
 20
99.8398
  0
VERTEX
  8
LAYER_2
 10
36.7459
 20
99.825
 42
-0.3563975313
  0
VERTEX
  8
LAYER_2
 10
36.6694
 20
99.5473
  0
VERTEX
  8
LAYER_2
 10
36.6559
 20
99.536
  0
VERTEX
  8
LAYER_2
 10
36.6246
 20
99.5163
  0
SEQEND
  0
ENDBLK
  0
BLOCK
  8
LAYER_2
  2
AIGNBL02010002
 70
64
 10
0
 20
0
 30
0
  3
AIGNBL02010002
  0
POLYLINE
  8
LAYER_2
 40
0.7056
 41
0.7056
 66
1
 10
0
 20
0
 30
0
 70
1
  0
VERTEX
  8
LAYER_2
 10
251.6749
 20
230.337
  0
VERTEX
  8
LAYER_2
 10
251.6749
 20
33.3285
  0
VERTEX
  8
LAYER_2
 10
-30.3177
 20
33.3285
  0
VERTEX
  8
LAYER_2
 10
-30.3177
 20
230.337
  0
SEQEND
  0
ENDBLK
  0
BLOCK
  8
LAYER_2
  2
AIGNBL02010003
 70
64
 10
0
 20
0
 30
0
  3
AIGNBL02010003
  0
INSERT
  8
LAYER_2
  2
AIGNBL02020004
 10
0
 20
0
 30
0
  0
POLYLINE
  8
LAYER_2
 40
0.05
 41
0.05
 66
1
 10
0
 20
0
 30
0
  0
VERTEX
  8
LAYER_2
 10
-6.457
 20
223.2684
  0
VERTEX
  8
LAYER_2
 10
-8.0924
 20
223.2684
  0
VERTEX
  8
LAYER_2
 10
-8.0924
 20
216.1939
 42
0.1050424825
  0
VERTEX
  8
LAYER_2
 10
-7.9127
 20
215.3316
 42
0.1079536646
  0
VERTEX
  8
LAYER_2
 10
-7.4796
 20
214.75
 42
0.105678841
  0
VERTEX
  8
LAYER_2
 10
-6.8587
 20
214.4154
 42
0.04706827067
  0
VERTEX
  8
LAYER_2
 10
-6.4597
 20
214.3359
  0
VERTEX
  8
LAYER_2
 10
-6.457
 20
223.2684
  0
SEQEND
  0
INSERT
  8
LAYER_2
  2
AIGNBL02020005
 10
0
 20
0
 30
0
  0
ENDBLK
  0
BLOCK
  8
LAYER_2
  2
AIGNBL02010006
 70
64
 10
0
 20
0
 30
0
  3
AIGNBL02010006
  0
INSERT
  8
LAYER_2
  2
AIGNBL02020007
 10
0
 20
0
 30
0
  0
INSERT
  8
LAYER_2
  2
AIGNBL02020010
 10
0
 20
0
 30
0
  0
ENDBLK
  0
BLOCK
  8
LAYER_2
  2
AIGNBL02010028
 70
64
 10
0
 20
0
 30
0
  3
AIGNBL02010028
  0
POLYLINE
  8
LAYER_2
 40
0.1199
 41
0.1199
 62
253
 66
1
 10
0
 20
0
 30
0
  0
VERTEX
  8
LAYER_2
 10
21.6411
 20
84.5985
  0
VERTEX
  8
LAYER_2
 10
21.6161
 20
85.0183
  0
VERTEX
  8
LAYER_2
 10
28.1827
 20
89.4954
  0
SEQEND
  0
POLYLINE
  8
LAYER_2
 40
0.1199
 41
0.1199
 62
253
 66
1
 10
0
 20
0
 30
0
  0
VERTEX
  8
LAYER_2
 10
28.3429
 20
89.1014
  0
VERTEX
  8
LAYER_2
 10
22.4504
 20
85.1115
  0
SEQEND
  0
POLYLINE
  8
LAYER_2
 40
0.1199
 41
0.1199
 62
253
 66
1
 10
0
 20
0
 30
0
  0
VERTEX
  8
LAYER_2
 10
23.9984
 20
84.0711
  0
VERTEX
  8
LAYER_2
 10
21.6118
 20
85.006
  0
SEQEND
  0
POLYLINE
  8
LAYER_2
 40
0.1199
 41
0.1199
 62
253
 66
1
 10
0
 20
0
 30
0
  0
VERTEX
  8
LAYER_2
 10
23.9984
 20
84.0711
  0
VERTEX
  8
LAYER_2
 10
30.3061
 20
88.7959
  0
VERTEX
  8
LAYER_2
 10
29.8097
 20
88.9592
  0
SEQEND
  0
POLYLINE
  8
LAYER_2
 40
0.1199
 41
0.1199
 62
253
 66
1
 10
0
 20
0
 30
0
  0
VERTEX
  8
LAYER_2
 10
21.638
 20
84.5897
  0
VERTEX
  8
LAYER_2
 10
23.9525
 20
83.5966
  0
SEQEND
  0
POLYLINE
  8
LAYER_2
 40
0.1199
 41
0.1199
 62
253
 66
1
 10
0
 20
0
 30
0
  0
VERTEX
  8
LAYER_2
 10
23.9984
 20
84.0711
  0
VERTEX
  8
LAYER_2
 10
23.961
 20
83.6051
  0
VERTEX
  8
LAYER_2
 10
30.2041
 20
88.3986
  0
SEQEND
  0
POLYLINE
  8
LAYER_2
 40
0.1199
 41
0.1199
 62
253
 66
1
 10
0
 20
0
 30
0
  0
VERTEX
  8
LAYER_2
 10
30.2041
 20
88.3986
  0
VERTEX
  8
LAYER_2
 10
30.3061
 20
88.7959
  0
SEQEND
  0
POLYLINE
  8
LAYER_2
 40
0.1199
 41
0.1199
 62
253
 66
1
 10
0
 20
0
 30
0
  0
VERTEX
  8
LAYER_2
 10
29.731
 20
88.6523
  0
VERTEX
  8
LAYER_2
 10
28.3429
 20
89.1179
  0
SEQEND
  0
POLYLINE
  8
LAYER_2
 40
0.1199
 41
0.1199
 62
253
 66
1
 10
0
 20
0
 30
0
  0
VERTEX
  8
LAYER_2
 10
28.1869
 20
89.4954
  0
VERTEX
  8
LAYER_2
 10
29.8097
 20
88.9592
  0
SEQEND
  0
POLYLINE
  8
LAYER_2
 40
0.1199
 41
0.1199
 62
253
 66
1
 10
0
 20
0
 30
0
  0
VERTEX
  8
LAYER_2
 10
22.4592
 20
85.0949
  0
VERTEX
  8
LAYER_2
 10
24.0266
 20
84.516
  0
SEQEND
  0
POLYLINE
  8
LAYER_2
 40
0.1199
 41
0.1199
 62
253
 66
1
 10
0
 20
0
 30
0
  0
VERTEX
  8
LAYER_2
 10
24.0432
 20
84.516
  0
VERTEX
  8
LAYER_2
 10
29.7645
 20
88.6523
  0
SEQEND
  0
POLYLINE
  8
LAYER_2
 40
0.1199
 41
0.1199
 62
253
 66
1
 10
0
 20
0
 30
0
  0
VERTEX
  8
LAYER_2
 10
28.3429
 20
88.6911
  0
VERTEX
  8
LAYER_2
 10
29.3377
 20
88.332
  0
SEQEND
  0
ENDBLK
  0
BLOCK
  8
LAYER_2
  2
AIGNBL02010029
 70
64
 10
0
 20
0
 30
0
  3
AIGNBL02010029
  0
POLYLINE
  8
LAYER_2
 40
0.1199
 41
0.1199
 66
1
 10
0
 20
0
 30
0
 70
1
  0
VERTEX
  8
LAYER_2
 10
48.9034
 20
82.7314
  0
VERTEX
  8
LAYER_2
 10
48.8953
 20
82.7314
  0
VERTEX
  8
LAYER_2
 10
48.8953
 20
82.7285
  0
VERTEX
  8
LAYER_2
 10
48.8924
 20
82.7285
  0
VERTEX
  8
LAYER_2
 10
48.8896
 20
82.7261
  0
VERTEX
  8
LAYER_2
 10
48.8896
 20
82.7229
  0
VERTEX
  8
LAYER_2
 10
48.8871
 20
82.7229
  0
VERTEX
  8
LAYER_2
 10
48.884
 20
82.7204
  0
VERTEX
  8
LAYER_2
 10
48.884
 20
82.7176
  0
VERTEX
  8
LAYER_2
 10
48.8787
 20
82.712
  0
VERTEX
  8
LAYER_2
 10
48.8787
 20
82.7067
  0
VERTEX
  8
LAYER_2
 10
48.8759
 20
82.7038
  0
VERTEX
  8
LAYER_2
 10
48.8759
 20
82.6954
  0
VERTEX
  8
LAYER_2
 10
48.873
 20
82.6929
  0
VERTEX
  8
LAYER_2
 10
48.873
 20
82.671
  0
VERTEX
  8
LAYER_2
 10
48.8759
 20
82.6679
  0
VERTEX
  8
LAYER_2
 10
48.8759
 20
82.6626
  0
VERTEX
  8
LAYER_2
 10
48.8787
 20
82.6597
  0
VERTEX
  8
LAYER_2
 10
48.8787
 20
82.6569
  0
VERTEX
  8
LAYER_2
 10
48.8815
 20
82.6541
  0
VERTEX
  8
LAYER_2
 10
48.8815
 20
82.6516
  0
VERTEX
  8
LAYER_2
 10
48.884
 20
82.6516
  0
VERTEX
  8
LAYER_2
 10
48.884
 20
82.6485
  0
VERTEX
  8
LAYER_2
 10
48.8871
 20
82.6485
  0
VERTEX
  8
LAYER_2
 10
48.8896
 20
82.646
  0
VERTEX
  8
LAYER_2
 10
48.9034
 20
82.646
  0
VERTEX
  8
LAYER_2
 10
48.9034
 20
82.6485
  0
VERTEX
  8
LAYER_2
 10
48.9066
 20
82.6485
  0
VERTEX
  8
LAYER_2
 10
48.909
 20
82.6516
  0
VERTEX
  8
LAYER_2
 10
48.9147
 20
82.6569
  0
VERTEX
  8
LAYER_2
 10
48.9147
 20
82.6597
  0
VERTEX
  8
LAYER_2
 10
48.9175
 20
82.6626
  0
VERTEX
  8
LAYER_2
 10
48.92
 20
82.665
  0
VERTEX
  8
LAYER_2
 10
48.92
 20
82.671
  0
VERTEX
  8
LAYER_2
 10
48.9228
 20
82.6763
  0
VERTEX
  8
LAYER_2
 10
48.9228
 20
82.6844
  0
VERTEX
  8
LAYER_2
 10
48.9256
 20
82.6901
  0
VERTEX
  8
LAYER_2
 10
48.9256
 20
82.701
  0
VERTEX
  8
LAYER_2
 10
48.9228
 20
82.7038
  0
VERTEX
  8
LAYER_2
 10
48.9228
 20
82.712
  0
VERTEX
  8
LAYER_2
 10
48.92
 20
82.7148
  0
VERTEX
  8
LAYER_2
 10
48.92
 20
82.7176
  0
VERTEX
  8
LAYER_2
 10
48.9175
 20
82.7204
  0
VERTEX
  8
LAYER_2
 10
48.9175
 20
82.7229
  0
VERTEX
  8
LAYER_2
 10
48.909
 20
82.7314
  0
SEQEND
  0
POLYLINE
  8
LAYER_2
 40
0.1199
 41
0.1199
 66
1
 10
0
 20
0
 30
0
 70
1
  0
VERTEX
  8
LAYER_2
 10
45.1897
 20
77.3335
  0
VERTEX
  8
LAYER_2
 10
45.1872
 20
77.3335
  0
VERTEX
  8
LAYER_2
 10
45.1844
 20
77.331
  0
VERTEX
  8
LAYER_2
 10
45.1816
 20
77.331
  0
VERTEX
  8
LAYER_2
 10
45.1787
 20
77.3282
  0
VERTEX
  8
LAYER_2
 10
45.1759
 20
77.3282
  0
VERTEX
  8
LAYER_2
 10
45.1735
 20
77.3254
  0
VERTEX
  8
LAYER_2
 10
45.1735
 20
77.3226
  0
VERTEX
  8
LAYER_2
 10
45.1703
 20
77.3226
  0
VERTEX
  8
LAYER_2
 10
45.1703
 20
77.3201
  0
VERTEX
  8
LAYER_2
 10
45.1678
 20
77.3169
  0
VERTEX
  8
LAYER_2
 10
45.165
 20
77.3141
  0
VERTEX
  8
LAYER_2
 10
45.165
 20
77.306
  0
VERTEX
  8
LAYER_2
 10
45.1625
 20
77.3032
  0
VERTEX
  8
LAYER_2
 10
45.1625
 20
77.2975
  0
VERTEX
  8
LAYER_2
 10
45.1593
 20
77.2922
  0
VERTEX
  8
LAYER_2
 10
45.1593
 20
77.2732
  0
VERTEX
  8
LAYER_2
 10
45.1625
 20
77.27
  0
VERTEX
  8
LAYER_2
 10
45.1625
 20
77.2647
  0
VERTEX
  8
LAYER_2
 10
45.165
 20
77.2619
  0
VERTEX
  8
LAYER_2
 10
45.165
 20
77.2566
  0
VERTEX
  8
LAYER_2
 10
45.1735
 20
77.2481
  0
VERTEX
  8
LAYER_2
 10
45.1759
 20
77.2481
  0
VERTEX
  8
LAYER_2
 10
45.1787
 20
77.2453
  0
VERTEX
  8
LAYER_2
 10
45.1844
 20
77.2453
  0
VERTEX
  8
LAYER_2
 10
45.1872
 20
77.2481
  0
VERTEX
  8
LAYER_2
 10
45.1897
 20
77.2481
  0
VERTEX
  8
LAYER_2
 10
45.1929
 20
77.2506
  0
VERTEX
  8
LAYER_2
 10
45.1953
 20
77.2506
  0
VERTEX
  8
LAYER_2
 10
45.1981
 20
77.2538
  0
VERTEX
  8
LAYER_2
 10
45.1981
 20
77.2566
  0
VERTEX
  8
LAYER_2
 10
45.201
 20
77.2591
  0
VERTEX
  8
LAYER_2
 10
45.201
 20
77.2619
  0
VERTEX
  8
LAYER_2
 10
45.2038
 20
77.2647
  0
VERTEX
  8
LAYER_2
 10
45.2063
 20
77.2675
  0
VERTEX
  8
LAYER_2
 10
45.2063
 20
77.2732
  0
VERTEX
  8
LAYER_2
 10
45.2094
 20
77.2756
  0
VERTEX
  8
LAYER_2
 10
45.2094
 20
77.2866
  0
VERTEX
  8
LAYER_2
 10
45.2119
 20
77.2894
  0
VERTEX
  8
LAYER_2
 10
45.2119
 20
77.3007
  0
VERTEX
  8
LAYER_2
 10
45.2094
 20
77.3032
  0
VERTEX
  8
LAYER_2
 10
45.2094
 20
77.3141
  0
VERTEX
  8
LAYER_2
 10
45.2063
 20
77.3169
  0
VERTEX
  8
LAYER_2
 10
45.2063
 20
77.3201
  0
VERTEX
  8
LAYER_2
 10
45.2038
 20
77.3226
  0
VERTEX
  8
LAYER_2
 10
45.201
 20
77.3254
  0
VERTEX
  8
LAYER_2
 10
45.201
 20
77.3282
  0
VERTEX
  8
LAYER_2
 10
45.1981
 20
77.3282
  0
VERTEX
  8
LAYER_2
 10
45.1981
 20
77.331
  0
VERTEX
  8
LAYER_2
 10
45.1929
 20
77.331
  0
SEQEND
  0
POLYLINE
  8
LAYER_2
 40
0.1199
 41
0.1199
 66
1
 10
0
 20
0
 30
0
  0
VERTEX
  8
LAYER_2
 10
44.7773
 20
76.3859
  0
VERTEX
  8
LAYER_2
 10
49.2435
 20
83.0238
  0
SEQEND
  0
POLYLINE
  8
LAYER_2
 40
0.1199
 41
0.1199
 66
1
 10
0
 20
0
 30
0
  0
VERTEX
  8
LAYER_2
 10
44.0319
 20
71.5825
  0
VERTEX
  8
LAYER_2
 10
47.4475
 20
76.8675
  0
SEQEND
  0
POLYLINE
  8
LAYER_2
 40
0.1199
 41
0.1199
 66
1
 10
0
 20
0
 30
0
  0
VERTEX
  8
LAYER_2
 10
45.5485
 20
77.5339
  0
VERTEX
  8
LAYER_2
 10
47.4418
 20
76.8869
  0
SEQEND
  0
POLYLINE
  8
LAYER_2
 40
0.1199
 41
0.1199
 66
1
 10
0
 20
0
 30
0
  0
VERTEX
  8
LAYER_2
 10
33.3882
 20
81.1255
  0
VERTEX
  8
LAYER_2
 10
33.6087
 20
81.3404
  0
VERTEX
  8
LAYER_2
 10
44.6545
 20
77.844
  0
SEQEND
  0
POLYLINE
  8
LAYER_2
 40
0.1199
 41
0.1199
 66
1
 10
0
 20
0
 30
0
  0
VERTEX
  8
LAYER_2
 10
43.2113
 20
70.5926
  0
VERTEX
  8
LAYER_2
 10
28.4444
 20
76.381
  0
VERTEX
  8
LAYER_2
 10
32.6872
 20
80.475
  0
SEQEND
  0
POLYLINE
  8
LAYER_2
 40
0.1199
 41
0.1199
 66
1
 10
0
 20
0
 30
0
  0
VERTEX
  8
LAYER_2
 10
44.5921
 20
76.4604
  0
VERTEX
  8
LAYER_2
 10
44.6528
 20
76.8714
  0
SEQEND
  0
POLYLINE
  8
LAYER_2
 40
0.1199
 41
0.1199
 66
1
 10
0
 20
0
 30
0
  0
VERTEX
  8
LAYER_2
 10
44.6528
 20
76.8714
  0
VERTEX
  8
LAYER_2
 10
49.5391
 20
83.8126
  0
SEQEND
  0
POLYLINE
  8
LAYER_2
 40
0.1199
 41
0.1199
 66
1
 10
0
 20
0
 30
0
  0
VERTEX
  8
LAYER_2
 10
43.151
 20
70.1234
  0
VERTEX
  8
LAYER_2
 10
44.0615
 20
76.6756
  0
SEQEND
  0
POLYLINE
  8
LAYER_2
 40
0.1199
 41
0.1199
 66
1
 10
0
 20
0
 30
0
  0
VERTEX
  8
LAYER_2
 10
43.6124
 20
69.9111
  0
VERTEX
  8
LAYER_2
 10
44.5921
 20
76.4604
  0
SEQEND
  0
POLYLINE
  8
LAYER_2
 40
0.1199
 41
0.1199
 66
1
 10
0
 20
0
 30
0
  0
VERTEX
  8
LAYER_2
 10
43.8357
 20
70.2642
  0
VERTEX
  8
LAYER_2
 10
44.7773
 20
76.3859
  0
SEQEND
  0
POLYLINE
  8
LAYER_2
 40
0.1199
 41
0.1199
 66
1
 10
0
 20
0
 30
0
  0
VERTEX
  8
LAYER_2
 10
44.0156
 20
71.464
  0
VERTEX
  8
LAYER_2
 10
47.5138
 20
76.8894
  0
SEQEND
  0
POLYLINE
  8
LAYER_2
 40
0.1199
 41
0.1199
 66
1
 10
0
 20
0
 30
0
  0
VERTEX
  8
LAYER_2
 10
43.109
 20
69.8119
  0
VERTEX
  8
LAYER_2
 10
43.568
 20
69.5996
  0
SEQEND
  0
POLYLINE
  8
LAYER_2
 40
0.1199
 41
0.1199
 66
1
 10
0
 20
0
 30
0
  0
VERTEX
  8
LAYER_2
 10
43.6124
 20
69.9111
  0
VERTEX
  8
LAYER_2
 10
43.568
 20
69.5996
  0
VERTEX
  8
LAYER_2
 10
48.044
 20
76.6826
  0
SEQEND
  0
POLYLINE
  8
LAYER_2
 40
0.1199
 41
0.1199
 66
1
 10
0
 20
0
 30
0
  0
VERTEX
  8
LAYER_2
 10
48.5196
 20
81.9425
  0
VERTEX
  8
LAYER_2
 10
47.5138
 20
76.895
  0
SEQEND
  0
POLYLINE
  8
LAYER_2
 40
0.1199
 41
0.1199
 66
1
 10
0
 20
0
 30
0
  0
VERTEX
  8
LAYER_2
 10
47.9364
 20
76.7267
  0
VERTEX
  8
LAYER_2
 10
49.2435
 20
83.0238
  0
SEQEND
  0
POLYLINE
  8
LAYER_2
 40
0.1199
 41
0.1199
 66
1
 10
0
 20
0
 30
0
  0
VERTEX
  8
LAYER_2
 10
48.044
 20
76.6826
  0
VERTEX
  8
LAYER_2
 10
49.5391
 20
83.8126
  0
SEQEND
  0
POLYLINE
  8
LAYER_2
 40
0.1199
 41
0.1199
 66
1
 10
0
 20
0
 30
0
  0
VERTEX
  8
LAYER_2
 10
44.6528
 20
76.8714
  0
VERTEX
  8
LAYER_2
 10
44.1169
 20
77.089
  0
SEQEND
  0
POLYLINE
  8
LAYER_2
 40
0.1199
 41
0.1199
 66
1
 10
0
 20
0
 30
0
  0
VERTEX
  8
LAYER_2
 10
49.5391
 20
83.8126
  0
VERTEX
  8
LAYER_2
 10
49.0611
 20
83.9728
  0
SEQEND
  0
POLYLINE
  8
LAYER_2
 40
0.1199
 41
0.1199
 66
1
 10
0
 20
0
 30
0
  0
VERTEX
  8
LAYER_2
 10
27.748
 20
76.2653
  0
VERTEX
  8
LAYER_2
 10
26.6262
 20
82.6696
  0
SEQEND
  0
POLYLINE
  8
LAYER_2
 40
0.1199
 41
0.1199
 66
1
 10
0
 20
0
 30
0
  0
VERTEX
  8
LAYER_2
 10
28.1018
 20
76.1027
  0
VERTEX
  8
LAYER_2
 10
27.0188
 20
82.5098
  0
SEQEND
  0
POLYLINE
  8
LAYER_2
 40
0.1199
 41
0.1199
 66
1
 10
0
 20
0
 30
0
  0
VERTEX
  8
LAYER_2
 10
28.1018
 20
76.1027
  0
VERTEX
  8
LAYER_2
 10
28.3809
 20
76.3701
  0
VERTEX
  8
LAYER_2
 10
27.4054
 20
82.3525
  0
SEQEND
  0
POLYLINE
  8
LAYER_2
 40
0.1199
 41
0.1199
 66
1
 10
0
 20
0
 30
0
  0
VERTEX
  8
LAYER_2
 10
28.3117
 20
76.8005
  0
VERTEX
  8
LAYER_2
 10
32.3129
 20
80.6069
  0
SEQEND
  0
POLYLINE
  8
LAYER_2
 40
0.1199
 41
0.1199
 66
1
 10
0
 20
0
 30
0
  0
VERTEX
  8
LAYER_2
 10
33.0351
 20
81.2899
  0
VERTEX
  8
LAYER_2
 10
33.2661
 20
81.5058
  0
SEQEND
  0
POLYLINE
  8
LAYER_2
 40
0.1199
 41
0.1199
 66
1
 10
0
 20
0
 30
0
  0
VERTEX
  8
LAYER_2
 10
28.3809
 20
76.3701
  0
VERTEX
  8
LAYER_2
 10
32.6625
 20
80.4849
  0
SEQEND
  0
POLYLINE
  8
LAYER_2
 40
0.1199
 41
0.1199
 66
1
 10
0
 20
0
 30
0
  0
VERTEX
  8
LAYER_2
 10
33.3554
 20
81.1421
  0
VERTEX
  8
LAYER_2
 10
33.8214
 20
81.5887
  0
SEQEND
  0
POLYLINE
  8
LAYER_2
 40
0.1199
 41
0.1199
 66
1
 10
0
 20
0
 30
0
  0
VERTEX
  8
LAYER_2
 10
28.1544
 20
75.7852
  0
VERTEX
  8
LAYER_2
 10
27.8034
 20
75.9481
  0
VERTEX
  8
LAYER_2
 10
27.748
 20
76.2653
  0
SEQEND
  0
POLYLINE
  8
LAYER_2
 40
0.1199
 41
0.1199
 66
1
 10
0
 20
0
 30
0
  0
VERTEX
  8
LAYER_2
 10
32.8848
 20
87.3118
  0
VERTEX
  8
LAYER_2
 10
33.2661
 20
81.5058
  0
VERTEX
  8
LAYER_2
 10
33.5974
 20
81.3735
  0
SEQEND
  0
POLYLINE
  8
LAYER_2
 40
0.1199
 41
0.1199
 66
1
 10
0
 20
0
 30
0
  0
VERTEX
  8
LAYER_2
 10
33.5974
 20
81.3735
  0
VERTEX
  8
LAYER_2
 10
33.2217
 20
87.5905
  0
SEQEND
  0
POLYLINE
  8
LAYER_2
 40
0.1199
 41
0.1199
 66
1
 10
0
 20
0
 30
0
  0
VERTEX
  8
LAYER_2
 10
33.8214
 20
81.5887
  0
VERTEX
  8
LAYER_2
 10
33.4898
 20
87.4995
  0
SEQEND
  0
POLYLINE
  8
LAYER_2
 40
0.1199
 41
0.1199
 66
1
 10
0
 20
0
 30
0
  0
VERTEX
  8
LAYER_2
 10
33.4513
 20
88.1779
  0
VERTEX
  8
LAYER_2
 10
33.0838
 20
88.2993
  0
VERTEX
  8
LAYER_2
 10
26.5574
 20
83.0697
  0
VERTEX
  8
LAYER_2
 10
26.9497
 20
82.9099
  0
SEQEND
  0
POLYLINE
  8
LAYER_2
 40
0.1199
 41
0.1199
 66
1
 10
0
 20
0
 30
0
  0
VERTEX
  8
LAYER_2
 10
26.5574
 20
83.0697
  0
VERTEX
  8
LAYER_2
 10
26.6262
 20
82.6696
  0
SEQEND
  0
POLYLINE
  8
LAYER_2
 40
0.1199
 41
0.1199
 66
1
 10
0
 20
0
 30
0
  0
VERTEX
  8
LAYER_2
 10
27.646
 20
83.0228
  0
VERTEX
  8
LAYER_2
 10
33.2217
 20
87.5905
  0
SEQEND
  0
POLYLINE
  8
LAYER_2
 40
0.1199
 41
0.1199
 66
1
 10
0
 20
0
 30
0
  0
VERTEX
  8
LAYER_2
 10
43.109
 20
69.8119
  0
VERTEX
  8
LAYER_2
 10
28.1544
 20
75.7852
  0
SEQEND
  0
POLYLINE
  8
LAYER_2
 40
0.1199
 41
0.1199
 66
1
 10
0
 20
0
 30
0
  0
VERTEX
  8
LAYER_2
 10
43.151
 20
70.1234
  0
VERTEX
  8
LAYER_2
 10
28.1018
 20
76.1027
  0
SEQEND
  0
POLYLINE
  8
LAYER_2
 40
0.1199
 41
0.1199
 66
1
 10
0
 20
0
 30
0
  0
VERTEX
  8
LAYER_2
 10
28.3809
 20
76.3701
  0
VERTEX
  8
LAYER_2
 10
43.206
 20
70.551
  0
SEQEND
  0
POLYLINE
  8
LAYER_2
 40
0.1199
 41
0.1199
 66
1
 10
0
 20
0
 30
0
  0
VERTEX
  8
LAYER_2
 10
44.0615
 20
76.6756
  0
VERTEX
  8
LAYER_2
 10
27.0188
 20
82.5098
  0
SEQEND
  0
POLYLINE
  8
LAYER_2
 40
0.1199
 41
0.1199
 66
1
 10
0
 20
0
 30
0
  0
VERTEX
  8
LAYER_2
 10
44.1169
 20
77.089
  0
VERTEX
  8
LAYER_2
 10
26.9497
 20
82.9099
  0
SEQEND
  0
POLYLINE
  8
LAYER_2
 40
0.1199
 41
0.1199
 66
1
 10
0
 20
0
 30
0
  0
VERTEX
  8
LAYER_2
 10
27.2728
 20
83.1716
  0
VERTEX
  8
LAYER_2
 10
44.3684
 20
77.4393
  0
SEQEND
  0
POLYLINE
  8
LAYER_2
 40
0.1199
 41
0.1199
 66
1
 10
0
 20
0
 30
0
  0
VERTEX
  8
LAYER_2
 10
48.8702
 20
83.7078
  0
VERTEX
  8
LAYER_2
 10
33.1998
 20
87.9736
  0
VERTEX
  8
LAYER_2
 10
33.2217
 20
87.5905
  0
VERTEX
  8
LAYER_2
 10
48.6247
 20
83.3632
  0
SEQEND
  0
POLYLINE
  8
LAYER_2
 40
0.1199
 41
0.1199
 66
1
 10
0
 20
0
 30
0
  0
VERTEX
  8
LAYER_2
 10
33.4513
 20
88.1779
  0
VERTEX
  8
LAYER_2
 10
49.0611
 20
83.9728
  0
SEQEND
  0
POLYLINE
  8
LAYER_2
 40
0.1199
 41
0.1199
 66
1
 10
0
 20
0
 30
0
  0
VERTEX
  8
LAYER_2
 10
44.6619
 20
77.8591
  0
VERTEX
  8
LAYER_2
 10
33.5974
 20
81.3735
  0
SEQEND
  0
POLYLINE
  8
LAYER_2
 40
0.1199
 41
0.1199
 66
1
 10
0
 20
0
 30
0
  0
VERTEX
  8
LAYER_2
 10
47.5138
 20
76.8894
  0
VERTEX
  8
LAYER_2
 10
45.5679
 20
77.549
  0
SEQEND
  0
POLYLINE
  8
LAYER_2
 40
0.1199
 41
0.1199
 66
1
 10
0
 20
0
 30
0
  0
VERTEX
  8
LAYER_2
 10
45.7481
 20
77.8327
  0
VERTEX
  8
LAYER_2
 10
47.5773
 20
77.2097
  0
SEQEND
  0
POLYLINE
  8
LAYER_2
 40
0.1199
 41
0.1199
 66
1
 10
0
 20
0
 30
0
  0
VERTEX
  8
LAYER_2
 10
33.8214
 20
81.5887
  0
VERTEX
  8
LAYER_2
 10
44.8542
 20
78.1276
  0
SEQEND
  0
POLYLINE
  8
LAYER_2
 40
0.1199
 41
0.1199
 66
1
 10
0
 20
0
 30
0
  0
VERTEX
  8
LAYER_2
 10
43.8357
 20
70.2642
  0
VERTEX
  8
LAYER_2
 10
47.9364
 20
76.7267
  0
SEQEND
  0
POLYLINE
  8
LAYER_2
 40
0.1199
 41
0.1199
 66
1
 10
0
 20
0
 30
0
  0
VERTEX
  8
LAYER_2
 10
44.3684
 20
77.4393
  0
VERTEX
  8
LAYER_2
 10
48.8702
 20
83.7078
  0
SEQEND
  0
POLYLINE
  8
LAYER_2
 40
0.1199
 41
0.1199
 66
1
 10
0
 20
0
 30
0
  0
VERTEX
  8
LAYER_2
 10
27.2728
 20
83.1716
  0
VERTEX
  8
LAYER_2
 10
33.1998
 20
87.9736
  0
SEQEND
  0
POLYLINE
  8
LAYER_2
 40
0.1199
 41
0.1199
 66
1
 10
0
 20
0
 30
0
  0
VERTEX
  8
LAYER_2
 10
28.45
 20
76.3397
  0
VERTEX
  8
LAYER_2
 10
28.4444
 20
76.381
  0
SEQEND
  0
ENDBLK
  0
BLOCK
  8
LAYER_2
  2
AIGNBL0201002A
 70
64
 10
0
 20
0
 30
0
  3
AIGNBL0201002A
  0
POLYLINE
  8
LAYER_2
 40
0.1094
 41
0.1094
 66
1
 10
0
 20
0
 30
0
  0
VERTEX
  8
LAYER_2
 10
32.684
 20
88.2843
  0
SEQEND
  0
POLYLINE
  8
LAYER_2
 40
0.1094
 41
0.1094
 66
1
 10
0
 20
0
 30
0
  0
VERTEX
  8
LAYER_2
 10
30.561
 20
88.7461
  0
SEQEND
  0
ENDBLK
  0
BLOCK
  8
LAYER_2
  2
AIGNBL0201002B
 70
64
 10
0
 20
0
 30
0
  3
AIGNBL0201002B
  0
POLYLINE
  8
LAYER_2
 40
0.1094
 41
0.1094
 66
1
 10
0
 20
0
 30
0
  0
VERTEX
  8
LAYER_2
 10
26.2166
 20
83.1277
  0
SEQEND
  0
POLYLINE
  8
LAYER_2
 40
0.1094
 41
0.1094
 66
1
 10
0
 20
0
 30
0
  0
VERTEX
  8
LAYER_2
 10
24.246
 20
83.9087
  0
SEQEND
  0
ENDBLK
  0
BLOCK
  8
LAYER_2
  2
AIGNBL0201002C
 70
64
 10
0
 20
0
 30
0
  3
AIGNBL0201002C
  0
POLYLINE
  8
LAYER_2
 40
0.1199
 41
0.1199
 62
253
 66
1
 10
0
 20
0
 30
0
 70
1
  0
VERTEX
  8
LAYER_2
 10
52.2432
 20
81.5749
  0
VERTEX
  8
LAYER_2
 10
52.2404
 20
81.5749
  0
VERTEX
  8
LAYER_2
 10
52.2376
 20
81.5721
  0
VERTEX
  8
LAYER_2
 10
52.2323
 20
81.5721
  0
VERTEX
  8
LAYER_2
 10
52.2323
 20
81.5693
  0
VERTEX
  8
LAYER_2
 10
52.2291
 20
81.5693
  0
VERTEX
  8
LAYER_2
 10
52.2266
 20
81.5668
  0
VERTEX
  8
LAYER_2
 10
52.2266
 20
81.5636
  0
VERTEX
  8
LAYER_2
 10
52.2238
 20
81.5612
  0
VERTEX
  8
LAYER_2
 10
52.221
 20
81.5612
  0
VERTEX
  8
LAYER_2
 10
52.221
 20
81.5587
  0
VERTEX
  8
LAYER_2
 10
52.2182
 20
81.5555
  0
VERTEX
  8
LAYER_2
 10
52.2182
 20
81.5502
  0
VERTEX
  8
LAYER_2
 10
52.2157
 20
81.5474
  0
VERTEX
  8
LAYER_2
 10
52.2157
 20
81.5421
  0
VERTEX
  8
LAYER_2
 10
52.2129
 20
81.5393
  0
VERTEX
  8
LAYER_2
 10
52.2129
 20
81.5121
  0
VERTEX
  8
LAYER_2
 10
52.2157
 20
81.5093
  0
VERTEX
  8
LAYER_2
 10
52.2157
 20
81.504
  0
VERTEX
  8
LAYER_2
 10
52.2182
 20
81.5012
  0
VERTEX
  8
LAYER_2
 10
52.2182
 20
81.4987
  0
VERTEX
  8
LAYER_2
 10
52.221
 20
81.4955
  0
VERTEX
  8
LAYER_2
 10
52.221
 20
81.4931
  0
VERTEX
  8
LAYER_2
 10
52.2238
 20
81.4931
  0
VERTEX
  8
LAYER_2
 10
52.2291
 20
81.4878
  0
VERTEX
  8
LAYER_2
 10
52.2376
 20
81.4878
  0
VERTEX
  8
LAYER_2
 10
52.2404
 20
81.4906
  0
VERTEX
  8
LAYER_2
 10
52.2432
 20
81.4906
  0
VERTEX
  8
LAYER_2
 10
52.246
 20
81.4931
  0
VERTEX
  8
LAYER_2
 10
52.2485
 20
81.4931
  0
VERTEX
  8
LAYER_2
 10
52.2485
 20
81.4955
  0
VERTEX
  8
LAYER_2
 10
52.2542
 20
81.5012
  0
VERTEX
  8
LAYER_2
 10
52.2542
 20
81.504
  0
VERTEX
  8
LAYER_2
 10
52.257
 20
81.5068
  0
VERTEX
  8
LAYER_2
 10
52.257
 20
81.5093
  0
VERTEX
  8
LAYER_2
 10
52.2598
 20
81.5121
  0
VERTEX
  8
LAYER_2
 10
52.2598
 20
81.515
  0
VERTEX
  8
LAYER_2
 10
52.2626
 20
81.5178
  0
VERTEX
  8
LAYER_2
 10
52.2626
 20
81.5555
  0
VERTEX
  8
LAYER_2
 10
52.2598
 20
81.5587
  0
VERTEX
  8
LAYER_2
 10
52.2598
 20
81.5612
  0
VERTEX
  8
LAYER_2
 10
52.2542
 20
81.5668
  0
VERTEX
  8
LAYER_2
 10
52.2542
 20
81.5693
  0
VERTEX
  8
LAYER_2
 10
52.2517
 20
81.5693
  0
VERTEX
  8
LAYER_2
 10
52.2485
 20
81.5721
  0
VERTEX
  8
LAYER_2
 10
52.246
 20
81.5721
  0
SEQEND
  0
POLYLINE
  8
LAYER_2
 40
0.1199
 41
0.1199
 62
253
 66
1
 10
0
 20
0
 30
0
 70
1
  0
VERTEX
  8
LAYER_2
 10
48.532
 20
76.3189
  0
VERTEX
  8
LAYER_2
 10
48.5239
 20
76.3189
  0
VERTEX
  8
LAYER_2
 10
48.5182
 20
76.3136
  0
VERTEX
  8
LAYER_2
 10
48.5154
 20
76.3136
  0
VERTEX
  8
LAYER_2
 10
48.5129
 20
76.3108
  0
VERTEX
  8
LAYER_2
 10
48.5129
 20
76.3079
  0
VERTEX
  8
LAYER_2
 10
48.5101
 20
76.3055
  0
VERTEX
  8
LAYER_2
 10
48.5101
 20
76.3027
  0
VERTEX
  8
LAYER_2
 10
48.5073
 20
76.2998
  0
VERTEX
  8
LAYER_2
 10
48.5073
 20
76.2974
  0
VERTEX
  8
LAYER_2
 10
48.5045
 20
76.2942
  0
VERTEX
  8
LAYER_2
 10
48.5045
 20
76.2861
  0
VERTEX
  8
LAYER_2
 10
48.5017
 20
76.2836
  0
VERTEX
  8
LAYER_2
 10
48.5017
 20
76.2564
  0
VERTEX
  8
LAYER_2
 10
48.5045
 20
76.2536
  0
VERTEX
  8
LAYER_2
 10
48.5045
 20
76.2483
  0
VERTEX
  8
LAYER_2
 10
48.5073
 20
76.2455
  0
VERTEX
  8
LAYER_2
 10
48.5073
 20
76.2427
  0
VERTEX
  8
LAYER_2
 10
48.5129
 20
76.2374
  0
VERTEX
  8
LAYER_2
 10
48.5154
 20
76.2374
  0
VERTEX
  8
LAYER_2
 10
48.5154
 20
76.2346
  0
VERTEX
  8
LAYER_2
 10
48.5295
 20
76.2346
  0
VERTEX
  8
LAYER_2
 10
48.532
 20
76.2374
  0
VERTEX
  8
LAYER_2
 10
48.5348
 20
76.2374
  0
VERTEX
  8
LAYER_2
 10
48.5376
 20
76.2399
  0
VERTEX
  8
LAYER_2
 10
48.5376
 20
76.2427
  0
VERTEX
  8
LAYER_2
 10
48.5405
 20
76.2427
  0
VERTEX
  8
LAYER_2
 10
48.5429
 20
76.2455
  0
VERTEX
  8
LAYER_2
 10
48.5429
 20
76.2483
  0
VERTEX
  8
LAYER_2
 10
48.5458
 20
76.2508
  0
VERTEX
  8
LAYER_2
 10
48.5458
 20
76.2536
  0
VERTEX
  8
LAYER_2
 10
48.5486
 20
76.2564
  0
VERTEX
  8
LAYER_2
 10
48.5486
 20
76.2646
  0
VERTEX
  8
LAYER_2
 10
48.5514
 20
76.267
  0
VERTEX
  8
LAYER_2
 10
48.5514
 20
76.2974
  0
VERTEX
  8
LAYER_2
 10
48.5486
 20
76.2998
  0
VERTEX
  8
LAYER_2
 10
48.5486
 20
76.3055
  0
VERTEX
  8
LAYER_2
 10
48.5458
 20
76.3079
  0
VERTEX
  8
LAYER_2
 10
48.5458
 20
76.3108
  0
VERTEX
  8
LAYER_2
 10
48.5429
 20
76.3136
  0
VERTEX
  8
LAYER_2
 10
48.5405
 20
76.3136
  0
VERTEX
  8
LAYER_2
 10
48.5405
 20
76.3164
  0
VERTEX
  8
LAYER_2
 10
48.5376
 20
76.3164
  0
VERTEX
  8
LAYER_2
 10
48.5376
 20
76.3189
  0
SEQEND
  0
POLYLINE
  8
LAYER_2
 40
0.1199
 41
0.1199
 62
253
 66
1
 10
0
 20
0
 30
0
  0
VERTEX
  8
LAYER_2
 10
47.8952
 20
75.3036
  0
VERTEX
  8
LAYER_2
 10
47.9531
 20
75.7093
  0
VERTEX
  8
LAYER_2
 10
52.8772
 20
82.6498
  0
SEQEND
  0
POLYLINE
  8
LAYER_2
 40
0.1199
 41
0.1199
 62
253
 66
1
 10
0
 20
0
 30
0
  0
VERTEX
  8
LAYER_2
 10
47.9474
 20
75.2821
  0
VERTEX
  8
LAYER_2
 10
47.8952
 20
75.3036
  0
SEQEND
  0
POLYLINE
  8
LAYER_2
 40
0.1199
 41
0.1199
 62
253
 66
1
 10
0
 20
0
 30
0
  0
VERTEX
  8
LAYER_2
 10
47.9474
 20
75.2821
  0
VERTEX
  8
LAYER_2
 10
48.0081
 20
75.6902
  0
VERTEX
  8
LAYER_2
 10
47.9531
 20
75.7093
  0
SEQEND
  0
POLYLINE
  8
LAYER_2
 40
0.1199
 41
0.1199
 62
253
 66
1
 10
0
 20
0
 30
0
  0
VERTEX
  8
LAYER_2
 10
52.8772
 20
82.6498
  0
VERTEX
  8
LAYER_2
 10
52.9241
 20
82.6336
  0
SEQEND
  0
POLYLINE
  8
LAYER_2
 40
0.1199
 41
0.1199
 62
253
 66
1
 10
0
 20
0
 30
0
  0
VERTEX
  8
LAYER_2
 10
52.6538
 20
81.975
  0
VERTEX
  8
LAYER_2
 10
48.4325
 20
75.9707
  0
SEQEND
  0
POLYLINE
  8
LAYER_2
 40
0.1199
 41
0.1199
 62
253
 66
1
 10
0
 20
0
 30
0
  0
VERTEX
  8
LAYER_2
 10
52.9241
 20
82.6336
  0
VERTEX
  8
LAYER_2
 10
48.0081
 20
75.6902
  0
SEQEND
  0
POLYLINE
  8
LAYER_2
 40
0.1199
 41
0.1199
 62
253
 66
1
 10
0
 20
0
 30
0
  0
VERTEX
  8
LAYER_2
 10
50.3354
 20
74.7621
  0
VERTEX
  8
LAYER_2
 10
49.7784
 20
74.9826
  0
SEQEND
  0
POLYLINE
  8
LAYER_2
 40
0.1199
 41
0.1199
 62
253
 66
1
 10
0
 20
0
 30
0
  0
VERTEX
  8
LAYER_2
 10
50.3354
 20
74.7621
  0
VERTEX
  8
LAYER_2
 10
55.0002
 20
81.9503
  0
VERTEX
  8
LAYER_2
 10
54.5038
 20
82.1136
  0
SEQEND
  0
POLYLINE
  8
LAYER_2
 40
0.1199
 41
0.1199
 62
253
 66
1
 10
0
 20
0
 30
0
  0
VERTEX
  8
LAYER_2
 10
49.7039
 20
74.5769
  0
VERTEX
  8
LAYER_2
 10
50.2553
 20
74.3539
  0
SEQEND
  0
POLYLINE
  8
LAYER_2
 40
0.1199
 41
0.1199
 62
253
 66
1
 10
0
 20
0
 30
0
  0
VERTEX
  8
LAYER_2
 10
50.3354
 20
74.7621
  0
VERTEX
  8
LAYER_2
 10
50.2553
 20
74.3539
  0
VERTEX
  8
LAYER_2
 10
54.8982
 20
81.5531
  0
SEQEND
  0
POLYLINE
  8
LAYER_2
 40
0.1199
 41
0.1199
 62
253
 66
1
 10
0
 20
0
 30
0
  0
VERTEX
  8
LAYER_2
 10
54.8982
 20
81.5531
  0
VERTEX
  8
LAYER_2
 10
55.0002
 20
81.9503
  0
SEQEND
  0
POLYLINE
  8
LAYER_2
 40
0.1199
 41
0.1199
 62
253
 66
1
 10
0
 20
0
 30
0
  0
VERTEX
  8
LAYER_2
 10
54.3278
 20
81.8444
  0
VERTEX
  8
LAYER_2
 10
52.7396
 20
82.3722
  0
VERTEX
  8
LAYER_2
 10
52.6538
 20
81.975
  0
VERTEX
  8
LAYER_2
 10
54.0932
 20
81.4931
  0
SEQEND
  0
POLYLINE
  8
LAYER_2
 40
0.1199
 41
0.1199
 62
253
 66
1
 10
0
 20
0
 30
0
  0
VERTEX
  8
LAYER_2
 10
52.9241
 20
82.6336
  0
VERTEX
  8
LAYER_2
 10
54.5038
 20
82.1136
  0
SEQEND
  0
POLYLINE
  8
LAYER_2
 40
0.1199
 41
0.1199
 62
253
 66
1
 10
0
 20
0
 30
0
  0
VERTEX
  8
LAYER_2
 10
49.7039
 20
74.5769
  0
VERTEX
  8
LAYER_2
 10
47.9474
 20
75.2821
  0
SEQEND
  0
POLYLINE
  8
LAYER_2
 40
0.1199
 41
0.1199
 62
253
 66
1
 10
0
 20
0
 30
0
  0
VERTEX
  8
LAYER_2
 10
49.7784
 20
74.9826
  0
VERTEX
  8
LAYER_2
 10
48.0081
 20
75.6902
  0
SEQEND
  0
POLYLINE
  8
LAYER_2
 40
0.1199
 41
0.1199
 62
253
 66
1
 10
0
 20
0
 30
0
  0
VERTEX
  8
LAYER_2
 10
48.2565
 20
76.0412
  0
VERTEX
  8
LAYER_2
 10
50.0183
 20
75.3445
  0
SEQEND
  0
POLYLINE
  8
LAYER_2
 40
0.1199
 41
0.1199
 62
253
 66
1
 10
0
 20
0
 30
0
  0
VERTEX
  8
LAYER_2
 10
50.0183
 20
75.3445
  0
VERTEX
  8
LAYER_2
 10
54.3278
 20
81.8444
  0
SEQEND
  0
ENDBLK
  0
BLOCK
  8
LAYER_2
  2
AIGNBL0201002D
 70
64
 10
0
 20
0
 30
0
  3
AIGNBL0201002D
  0
POLYLINE
  8
LAYER_2
 40
0.1094
 41
0.1094
 66
1
 10
0
 20
0
 30
0
  0
VERTEX
  8
LAYER_2
 10
52.5172
 20
82.8295
  0
SEQEND
  0
POLYLINE
  8
LAYER_2
 40
0.1094
 41
0.1094
 66
1
 10
0
 20
0
 30
0
  0
VERTEX
  8
LAYER_2
 10
49.9606
 20
83.6402
  0
SEQEND
  0
ENDBLK
  0
BLOCK
  8
LAYER_2
  2
AIGNBL0201002E
 70
64
 10
0
 20
0
 30
0
  3
AIGNBL0201002E
  0
POLYLINE
  8
LAYER_2
 40
0.1094
 41
0.1094
 66
1
 10
0
 20
0
 30
0
  0
VERTEX
  8
LAYER_2
 10
47.5832
 20
75.6852
  0
SEQEND
  0
POLYLINE
  8
LAYER_2
 40
0.1094
 41
0.1094
 66
1
 10
0
 20
0
 30
0
  0
VERTEX
  8
LAYER_2
 10
45.0266
 20
76.4959
  0
SEQEND
  0
ENDBLK
  0
BLOCK
  8
LAYER_2
  2
AIGNBL0201002F
 70
64
 10
0
 20
0
 30
0
  3
AIGNBL0201002F
  0
POLYLINE
  8
LAYER_2
 40
0.1094
 41
0.1094
 66
1
 10
0
 20
0
 30
0
  0
VERTEX
  8
LAYER_2
 10
26.6272
 20
84.0794
  0
SEQEND
  0
POLYLINE
  8
LAYER_2
 40
0.1094
 41
0.1094
 66
1
 10
0
 20
0
 30
0
  0
VERTEX
  8
LAYER_2
 10
25.6002
 20
94.4077
  0
SEQEND
  0
ENDBLK
  0
BLOCK
  8
LAYER_2
  2
AIGNBL02010030
 70
64
 10
0
 20
0
 30
0
  3
AIGNBL02010030
  0
POLYLINE
  8
LAYER_2
 40
0.1094
 41
0.1094
 66
1
 10
0
 20
0
 30
0
  0
VERTEX
  8
LAYER_2
 10
33.0581
 20
88.5781
  0
SEQEND
  0
POLYLINE
  8
LAYER_2
 40
0.1094
 41
0.1094
 66
1
 10
0
 20
0
 30
0
  0
VERTEX
  8
LAYER_2
 10
33.045
 20
91.588
  0
SEQEND
  0
ENDBLK
  0
BLOCK
  8
LAYER_2
  2
AIGNBL02010031
 70
64
 10
0
 20
0
 30
0
  3
AIGNBL02010031
  0
POLYLINE
  8
LAYER_2
 40
0.1094
 41
0.1094
 66
1
 10
0
 20
0
 30
0
  0
VERTEX
  8
LAYER_2
 10
44.4179
 20
79.1052
  0
SEQEND
  0
POLYLINE
  8
LAYER_2
 40
0.1094
 41
0.1094
 66
1
 10
0
 20
0
 30
0
  0
VERTEX
  8
LAYER_2
 10
45.2734
 20
87.501
  0
SEQEND
  0
ENDBLK
  0
BLOCK
  8
LAYER_2
  2
AIGNBL02010032
 70
64
 10
0
 20
0
 30
0
  3
AIGNBL02010032
  0
POLYLINE
  8
LAYER_2
 40
0.1094
 41
0.1094
 66
1
 10
0
 20
0
 30
0
  0
VERTEX
  8
LAYER_2
 10
49.4998
 20
84.3644
  0
SEQEND
  0
POLYLINE
  8
LAYER_2
 40
0.1094
 41
0.1094
 66
1
 10
0
 20
0
 30
0
  0
VERTEX
  8
LAYER_2
 10
50.754
 20
94.4711
  0
SEQEND
  0
ENDBLK
  0
BLOCK
  8
LAYER_2
  2
AIGNBL02010033
 70
64
 10
0
 20
0
 30
0
  3
AIGNBL02010033
  0
POLYLINE
  8
LAYER_2
 40
0.05
 41
0.05
 62
255
 66
1
 10
0
 20
0
 30
0
  0
VERTEX
  8
LAYER_2
 10
25.2548
 20
95.3105
  0
VERTEX
  8
LAYER_2
 10
25.2601
 20
95.2967
  0
VERTEX
  8
LAYER_2
 10
25.276
 20
95.2784
  0
VERTEX
  8
LAYER_2
 10
25.3
 20
95.266
  0
VERTEX
  8
LAYER_2
 10
27.205
 20
94.6098
  0
VERTEX
  8
LAYER_2
 10
27.3196
 20
94.5696
  0
VERTEX
  8
LAYER_2
 10
27.8961
 20
93.8119
  0
VERTEX
  8
LAYER_2
 10
45.3751
 20
88.0175
  0
VERTEX
  8
LAYER_2
 10
50.2138
 20
94.2962
  0
VERTEX
  8
LAYER_2
 10
50.2505
 20
94.5668
  0
VERTEX
  8
LAYER_2
 10
50.2985
 20
94.6247
  0
VERTEX
  8
LAYER_2
 10
51.2256
 20
95.8594
  0
VERTEX
  8
LAYER_2
 10
51.3466
 20
96.0266
  0
VERTEX
  8
LAYER_2
 10
51.3522
 20
96.0379
  0
VERTEX
  8
LAYER_2
 10
51.3547
 20
96.0492
  0
VERTEX
  8
LAYER_2
 10
51.3434
 20
96.2164
  0
VERTEX
  8
LAYER_2
 10
51.3424
 20
96.227
  0
VERTEX
  8
LAYER_2
 10
51.3367
 20
96.2407
  0
VERTEX
  8
LAYER_2
 10
51.3283
 20
96.2503
  0
VERTEX
  8
LAYER_2
 10
51.3194
 20
96.2633
  0
VERTEX
  8
LAYER_2
 10
51.311
 20
96.2732
  0
VERTEX
  8
LAYER_2
 10
51.299
 20
96.2824
  0
VERTEX
  8
LAYER_2
 10
51.2842
 20
96.2877
  0
VERTEX
  8
LAYER_2
 10
51.2725
 20
96.2933
  0
VERTEX
  8
LAYER_2
 10
51.2147
 20
96.3071
  0
VERTEX
  8
LAYER_2
 10
31.9865
 20
101.8097
  0
VERTEX
  8
LAYER_2
 10
31.9752
 20
101.8118
  0
VERTEX
  8
LAYER_2
 10
31.9576
 20
101.8093
  0
VERTEX
  8
LAYER_2
 10
31.9509
 20
101.8051
  0
VERTEX
  8
LAYER_2
 10
25.3546
 20
95.6661
  0
VERTEX
  8
LAYER_2
 10
25.2209
 20
95.543
  0
VERTEX
  8
LAYER_2
 10
25.2142
 20
95.5387
  0
VERTEX
  8
LAYER_2
 10
25.2008
 20
95.4759
  0
VERTEX
  8
LAYER_2
 10
25.2262
 20
95.392
  0
VERTEX
  8
LAYER_2
 10
25.2548
 20
95.3105
  0
SEQEND
  0
POLYLINE
  8
LAYER_2
 40
0.1411
 41
0.1411
 66
1
 10
0
 20
0
 30
0
  0
VERTEX
  8
LAYER_2
 10
25.2548
 20
95.3105
  0
VERTEX
  8
LAYER_2
 10
25.2601
 20
95.2967
  0
VERTEX
  8
LAYER_2
 10
25.276
 20
95.2784
  0
VERTEX
  8
LAYER_2
 10
25.3
 20
95.266
  0
VERTEX
  8
LAYER_2
 10
27.205
 20
94.6098
  0
VERTEX
  8
LAYER_2
 10
27.3196
 20
94.5696
  0
VERTEX
  8
LAYER_2
 10
27.8961
 20
93.8119
  0
VERTEX
  8
LAYER_2
 10
45.3751
 20
88.0175
  0
VERTEX
  8
LAYER_2
 10
50.2138
 20
94.2962
  0
VERTEX
  8
LAYER_2
 10
50.2505
 20
94.5668
  0
VERTEX
  8
LAYER_2
 10
50.2985
 20
94.6247
  0
VERTEX
  8
LAYER_2
 10
51.2256
 20
95.8594
  0
VERTEX
  8
LAYER_2
 10
51.3466
 20
96.0266
  0
VERTEX
  8
LAYER_2
 10
51.3522
 20
96.0379
  0
VERTEX
  8
LAYER_2
 10
51.3547
 20
96.0492
  0
VERTEX
  8
LAYER_2
 10
51.3434
 20
96.2164
  0
VERTEX
  8
LAYER_2
 10
51.3424
 20
96.227
  0
VERTEX
  8
LAYER_2
 10
51.3367
 20
96.2407
  0
VERTEX
  8
LAYER_2
 10
51.3283
 20
96.2503
  0
VERTEX
  8
LAYER_2
 10
51.3194
 20
96.2633
  0
VERTEX
  8
LAYER_2
 10
51.311
 20
96.2732
  0
VERTEX
  8
LAYER_2
 10
51.299
 20
96.2824
  0
VERTEX
  8
LAYER_2
 10
51.2842
 20
96.2877
  0
VERTEX
  8
LAYER_2
 10
51.2725
 20
96.2933
  0
VERTEX
  8
LAYER_2
 10
51.2147
 20
96.3071
  0
VERTEX
  8
LAYER_2
 10
31.9865
 20
101.8097
  0
VERTEX
  8
LAYER_2
 10
31.9752
 20
101.8118
  0
VERTEX
  8
LAYER_2
 10
31.9576
 20
101.8093
  0
VERTEX
  8
LAYER_2
 10
31.9509
 20
101.8051
  0
VERTEX
  8
LAYER_2
 10
25.3546
 20
95.6661
  0
VERTEX
  8
LAYER_2
 10
25.2209
 20
95.543
  0
VERTEX
  8
LAYER_2
 10
25.2142
 20
95.5387
  0
VERTEX
  8
LAYER_2
 10
25.2008
 20
95.4759
  0
VERTEX
  8
LAYER_2
 10
25.2262
 20
95.392
  0
VERTEX
  8
LAYER_2
 10
25.2548
 20
95.3105
  0
SEQEND
  0
INSERT
  8
LAYER_2
  2
AIGNBL02020034
 10
0
 20
0
 30
0
  0
INSERT
  8
LAYER_2
  2
AIGNBL02020035
 10
0
 20
0
 30
0
  0
ENDBLK
  0
BLOCK
  8
LAYER_2
  2
AIGNBL02010036
 70
64
 10
0
 20
0
 30
0
  3
AIGNBL02010036
  0
POLYLINE
  8
LAYER_2
 40
0.7056
 41
0.7056
 66
1
 10
0
 20
0
 30
0
  0
VERTEX
  8
LAYER_2
 10
37.8364
 20
195.014
  0
SEQEND
  0
ENDBLK
  0
BLOCK
  8
LAYER_2
  2
AIGNBL02010037
 70
64
 10
0
 20
0
 30
0
  3
AIGNBL02010037
  0
POLYLINE
  8
LAYER_2
 40
0.7056
 41
0.7056
 66
1
 10
0
 20
0
 30
0
  0
VERTEX
  8
LAYER_2
 10
37.8364
 20
155.014
  0
SEQEND
  0
ENDBLK
  0
BLOCK
  8
LAYER_2
  2
AIGNBL02010038
 70
64
 10
0
 20
0
 30
0
  3
AIGNBL02010038
  0
POLYLINE
  8
LAYER_2
 40
0.7056
 41
0.7056
 66
1
 10
0
 20
0
 30
0
  0
VERTEX
  8
LAYER_2
 10
48.6555
 20
206.5246
  0
SEQEND
  0
ENDBLK
  0
BLOCK
  8
LAYER_2
  2
AIGNBL02010039
 70
64
 10
0
 20
0
 30
0
  3
AIGNBL02010039
  0
POLYLINE
  8
LAYER_2
 40
0.7056
 41
0.7056
 66
1
 10
0
 20
0
 30
0
  0
VERTEX
  8
LAYER_2
 10
94.1555
 20
206.5246
  0
SEQEND
  0
ENDBLK
  0
BLOCK
  8
LAYER_2
  2
AIGNBL0201003A
 70
64
 10
0
 20
0
 30
0
  3
AIGNBL0201003A
  0
POLYLINE
  8
LAYER_2
 40
0.7056
 41
0.7056
 66
1
 10
0
 20
0
 30
0
  0
VERTEX
  8
LAYER_2
 10
194.0931
 20
206.5246
  0
SEQEND
  0
ENDBLK
  0
BLOCK
  8
LAYER_2
  2
AIGNBL0201003B
 70
64
 10
0
 20
0
 30
0
  3
AIGNBL0201003B
  0
POLYLINE
  8
LAYER_2
 40
0.7056
 41
0.7056
 66
1
 10
0
 20
0
 30
0
  0
VERTEX
  8
LAYER_2
 10
115.4931
 20
206.5246
  0
SEQEND
  0
ENDBLK
  0
BLOCK
  8
LAYER_2
  2
AIGNBL0201003C
 70
64
 10
0
 20
0
 30
0
  3
AIGNBL0201003C
  0
POLYLINE
  8
LAYER_2
 40
0.7056
 41
0.7056
 66
1
 10
0
 20
0
 30
0
  0
VERTEX
  8
LAYER_2
 10
104.3702
 20
135.3779
  0
SEQEND
  0
ENDBLK
  0
BLOCK
  8
LAYER_2
  2
AIGNBL0201003D
 70
64
 10
0
 20
0
 30
0
  3
AIGNBL0201003D
  0
POLYLINE
  8
LAYER_2
 40
0.7056
 41
0.7056
 66
1
 10
0
 20
0
 30
0
  0
VERTEX
  8
LAYER_2
 10
104.3702
 20
95.3779
  0
SEQEND
  0
ENDBLK
  0
BLOCK
  8
LAYER_2
  2
AIGNBL0201003E
 70
64
 10
0
 20
0
 30
0
  3
AIGNBL0201003E
  0
POLYLINE
  8
LAYER_2
 40
0.7056
 41
0.7056
 66
1
 10
0
 20
0
 30
0
  0
VERTEX
  8
LAYER_2
 10
106.7856
 20
195.014
  0
SEQEND
  0
ENDBLK
  0
BLOCK
  8
LAYER_2
  2
AIGNBL0201003F
 70
64
 10
0
 20
0
 30
0
  3
AIGNBL0201003F
  0
POLYLINE
  8
LAYER_2
 40
0.7056
 41
0.7056
 66
1
 10
0
 20
0
 30
0
  0
VERTEX
  8
LAYER_2
 10
106.7856
 20
187.764
  0
SEQEND
  0
ENDBLK
  0
BLOCK
  8
LAYER_2
  2
AIGNBL02010040
 70
64
 10
0
 20
0
 30
0
  3
AIGNBL02010040
  0
POLYLINE
  8
LAYER_2
 40
0.7056
 41
0.7056
 66
1
 10
0
 20
0
 30
0
  0
VERTEX
  8
LAYER_2
 10
118.5431
 20
187.764
  0
SEQEND
  0
ENDBLK
  0
BLOCK
  8
LAYER_2
  2
AIGNBL02010041
 70
64
 10
0
 20
0
 30
0
  3
AIGNBL02010041
  0
POLYLINE
  8
LAYER_2
 40
0.7056
 41
0.7056
 66
1
 10
0
 20
0
 30
0
  0
VERTEX
  8
LAYER_2
 10
191.0431
 20
187.764
  0
SEQEND
  0
ENDBLK
  0
BLOCK
  8
LAYER_2
  2
AIGNBL02010042
 70
64
 10
0
 20
0
 30
0
  3
AIGNBL02010042
  0
POLYLINE
  8
LAYER_2
 40
0.7056
 41
0.7056
 66
1
 10
0
 20
0
 30
0
  0
VERTEX
  8
LAYER_2
 10
217.298
 20
203.2611
  0
SEQEND
  0
ENDBLK
  0
BLOCK
  8
LAYER_2
  2
AIGNBL02010043
 70
64
 10
0
 20
0
 30
0
  3
AIGNBL02010043
  0
POLYLINE
  8
LAYER_2
 40
0.7056
 41
0.7056
 66
1
 10
0
 20
0
 30
0
  0
VERTEX
  8
LAYER_2
 10
217.298
 20
168.2611
  0
SEQEND
  0
ENDBLK
  0
BLOCK
  8
LAYER_2
  2
AIGNBL02010044
 70
64
 10
0
 20
0
 30
0
  3
AIGNBL02010044
  0
POLYLINE
  8
LAYER_2
 40
0.7056
 41
0.7056
 66
1
 10
0
 20
0
 30
0
  0
VERTEX
  8
LAYER_2
 10
225.6556
 20
209.5974
  0
SEQEND
  0
ENDBLK
  0
BLOCK
  8
LAYER_2
  2
AIGNBL02010045
 70
64
 10
0
 20
0
 30
0
  3
AIGNBL02010045
  0
POLYLINE
  8
LAYER_2
 40
0.7056
 41
0.7056
 66
1
 10
0
 20
0
 30
0
  0
VERTEX
  8
LAYER_2
 10
235.6556
 20
209.5974
  0
SEQEND
  0
ENDBLK
  0
ENDSEC
  0
SECTION
  2
ENTITIES
  0
TEXT
  8
LAYER_2
 10
-26.2556
 20
43.1712
 11
-26.2556
 21
43.1712
 40
3.2995
 41
0.5
  1
仕様
  0
POLYLINE
  8
LAYER_2
 40
0.3528
 41
0.3528
 66
1
 10
0
 20
0
 30
0
  0
VERTEX
  8
LAYER_2
 10
250.6748
 20
51.9507
  0
VERTEX
  8
LAYER_2
 10
-29.3178
 20
51.9507
  0
SEQEND
  0
INSERT
  8
LAYER_2
  2
AIGNBL02010002
 10
0
 20
0
 30
0
  0
POLYLINE
  8
LAYER_2
 40
0.3528
 41
0.3528
 66
1
 10
0
 20
0
 30
0
  0
VERTEX
  8
LAYER_2
 10
-29.3178
 20
229.3369
  0
VERTEX
  8
LAYER_2
 10
-29.3178
 20
34.3283
  0
VERTEX
  8
LAYER_2
 10
250.6748
 20
34.3283
  0
VERTEX
  8
LAYER_2
 10
250.6748
 20
229.3369
  0
VERTEX
  8
LAYER_2
 10
-29.3178
 20
229.3369
  0
SEQEND
  0
POLYLINE
  8
LAYER_2
 40
0.3528
 41
0.3528
 66
1
 10
0
 20
0
 30
0
  0
VERTEX
  8
LAYER_2
 10
250.6748
 20
60.4597
  0
VERTEX
  8
LAYER_2
 10
-29.3178
 20
60.4597
  0
SEQEND
  0
POLYLINE
  8
LAYER_2
 40
0.3528
 41
0.3528
 66
1
 10
0
 20
0
 30
0
  0
VERTEX
  8
LAYER_2
 10
250.6748
 20
43.4416
  0
VERTEX
  8
LAYER_2
 10
143.5341
 20
43.4416
  0
SEQEND
  0
TEXT
  8
LAYER_2
 10
188.1725
 20
45.7175
 11
188.1725
 21
45.7175
 40
3.7615
 41
0.5
  1
-
  0
TEXT
  8
LAYER_2
 10
182.8808
 20
49.4743
 11
182.8808
 21
49.4743
 40
2.1997
 41
0.5
  1
縮尺
  0
POLYLINE
  8
LAYER_2
 40
0.3528
 41
0.3528
 66
1
 10
0
 20
0
 30
0
  0
VERTEX
  8
LAYER_2
 10
181.3526
 20
43.4416
  0
VERTEX
  8
LAYER_2
 10
181.3526
 20
51.9507
  0
SEQEND
  0
TEXT
  8
LAYER_2
 10
144.2327
 20
57.9834
 11
144.2327
 21
57.9834
 40
2.1997
 41
0.5
  1
品番
  0
TEXT
  8
LAYER_2
 10
-28.1609
 20
57.9834
 11
-28.1609
 21
57.9834
 40
2.1997
 41
0.5
  1
品名
  0
TEXT
  8
LAYER_2
 10
144.2327
 20
49.4743
 11
144.2327
 21
49.4743
 40
2.1997
 41
0.5
  1
重量
  0
TEXT
  8
LAYER_2
 10
150.2547
 20
54.1514
 11
150.2547
 21
54.1514
 40
5.9385
 41
0.5
  1
CIE-ERST80/MB
  0
TEXT
  8
LAYER_2
 10
149.1041
 20
45.8125
 11
149.1041
 21
45.8125
 40
3.7615
 41
0.5
  1
６kg
  0
POLYLINE
  8
LAYER_2
 40
0.3528
 41
0.3528
 66
1
 10
0
 20
0
 30
0
  0
VERTEX
  8
LAYER_2
 10
143.5341
 20
34.9539
  0
VERTEX
  8
LAYER_2
 10
143.5341
 20
60.4597
  0
SEQEND
  0
TEXT
  8
LAYER_2
 10
-15.2849
 20
54.891
 11
-15.2849
 21
54.891
 40
4.1465
 41
0.5
  1
エラ 洗傭器用バスケット800ｍｍ
  0
INSERT
  8
LAYER_2
  2
AIGNBL02010003
 10
0
 20
0
 30
0
  0
TEXT
  8
LAYER_2
 10
-15.6835
 20
45.3736
 11
-15.6835
 21
45.3736
 40
3.1177
 41
0.5
  1
●取り付けボルト同梱●スチール塗装
  0
TEXT
  8
LAYER_2
 10
-15.6835
 20
40.6235
 11
-15.6835
 21
40.6235
 40
3.5541
 41
0.5
  1
●CIE-ERLA80SX用
  0
TEXT
  8
LAYER_2
 10
237.263
 20
63.2582
 11
237.263
 21
63.2582
 40
2.9618
 41
0.5
  1
単位：mm
  0
TEXT
  8
LAYER_2
 10
176.0254
 20
39.5359
 11
176.0254
 21
39.5359
 40
3.3853
 41
0.5
  1
●TEL 0120-65-1232●FAX 06-6532-1580
  0
TEXT
  8
LAYER_2
 10
176.0254
 20
36.0212
 11
176.0254
 21
36.0212
 40
3.3853
 41
0.5
  1
hits@hiratatile.co.jp
  0
INSERT
  8
LAYER_2
  2
AIGNBL02010006
 10
0
 20
0
 30
0
  0
INSERT
  8
LAYER_2
  2
AIGNBL02010028
 10
0
 20
0
 30
0
  0
POLYLINE
  8
LAYER_2
 40
0.05
 41
0.05
 62
254
 66
1
 10
0
 20
0
 30
0
 70
1
  0
VERTEX
  8
LAYER_2
 10
32.7304
 20
80.5101
  0
VERTEX
  8
LAYER_2
 10
28.4597
 20
76.3625
  0
VERTEX
  8
LAYER_2
 10
43.2019
 20
70.6136
  0
VERTEX
  8
LAYER_2
 10
44.0641
 20
76.7322
  0
SEQEND
  0
POLYLINE
  8
LAYER_2
 40
0.05
 41
0.05
 62
254
 66
1
 10
0
 20
0
 30
0
 70
1
  0
VERTEX
  8
LAYER_2
 10
33.6338
 20
81.2903
  0
VERTEX
  8
LAYER_2
 10
33.3875
 20
81.1259
  0
VERTEX
  8
LAYER_2
 10
44.3515
 20
77.4341
  0
VERTEX
  8
LAYER_2
 10
44.5568
 20
77.8409
  0
SEQEND
  0
POLYLINE
  8
LAYER_2
 40
0.05
 41
0.05
 62
254
 66
1
 10
0
 20
0
 30
0
 70
1
  0
VERTEX
  8
LAYER_2
 10
44.8033
 20
76.4037
  0
VERTEX
  8
LAYER_2
 10
45.5628
 20
77.4345
  0
VERTEX
  8
LAYER_2
 10
47.4724
 20
76.9191
  0
VERTEX
  8
LAYER_2
 10
44.0642
 20
71.7018
  0
SEQEND
  0
INSERT
  8
LAYER_2
  2
AIGNBL02010029
 10
0
 20
0
 30
0
  0
POLYLINE
  8
LAYER_2
 40
0.1199
 41
0.1199
 62
253
 66
1
 10
0
 20
0
 30
0
  0
VERTEX
  8
LAYER_2
 10
28.342
 20
88.7068
  0
VERTEX
  8
LAYER_2
 10
22.8041
 20
85.0259
  0
SEQEND
  0
POLYLINE
  8
LAYER_2
  6
AIGENLINE001
 40
0.1094
 41
0.1094
 66
1
 10
0
 20
0
 30
0
 70
128
  0
VERTEX
  8
LAYER_2
 10
30.7733
 20
88.6999
  0
VERTEX
  8
LAYER_2
 10
32.5781
 20
88.3072
  0
SEQEND
  0
INSERT
  8
LAYER_2
  2
AIGNBL0201002A
 10
0
 20
0
 30
0
  0
POLYLINE
  8
LAYER_2
  6
AIGENLINE002
 40
0.1094
 41
0.1094
 66
1
 10
0
 20
0
 30
0
 70
128
  0
VERTEX
  8
LAYER_2
 10
24.443
 20
83.8306
  0
VERTEX
  8
LAYER_2
 10
26.118
 20
83.1667
  0
SEQEND
  0
INSERT
  8
LAYER_2
  2
AIGNBL0201002B
 10
0
 20
0
 30
0
  0
INSERT
  8
LAYER_2
  2
AIGNBL0201002C
 10
0
 20
0
 30
0
  0
POLYLINE
  8
LAYER_2
  6
AIGENLINE003
 40
0.1094
 41
0.1094
 66
1
 10
0
 20
0
 30
0
 70
128
  0
VERTEX
  8
LAYER_2
 10
50.1737
 20
83.5726
  0
VERTEX
  8
LAYER_2
 10
52.4106
 20
82.8632
  0
SEQEND
  0
INSERT
  8
LAYER_2
  2
AIGNBL0201002D
 10
0
 20
0
 30
0
  0
POLYLINE
  8
LAYER_2
  6
AIGENLINE003
 40
0.1094
 41
0.1094
 66
1
 10
0
 20
0
 30
0
 70
128
  0
VERTEX
  8
LAYER_2
 10
45.2396
 20
76.4284
  0
VERTEX
  8
LAYER_2
 10
47.4766
 20
75.7189
  0
SEQEND
  0
INSERT
  8
LAYER_2
  2
AIGNBL0201002E
 10
0
 20
0
 30
0
  0
POLYLINE
  8
LAYER_2
  6
AIGENLINE004
 40
0.1094
 41
0.1094
 66
1
 10
0
 20
0
 30
0
 70
128
  0
VERTEX
  8
LAYER_2
 10
25.6221
 20
94.188
  0
VERTEX
  8
LAYER_2
 10
26.6162
 20
84.1892
  0
SEQEND
  0
INSERT
  8
LAYER_2
  2
AIGNBL0201002F
 10
0
 20
0
 30
0
  0
POLYLINE
  8
LAYER_2
  6
AIGENLINE005
 40
0.1094
 41
0.1094
 66
1
 10
0
 20
0
 30
0
 70
128
  0
VERTEX
  8
LAYER_2
 10
33.0459
 20
91.373
  0
VERTEX
  8
LAYER_2
 10
33.0576
 20
88.6855
  0
SEQEND
  0
INSERT
  8
LAYER_2
  2
AIGNBL02010030
 10
0
 20
0
 30
0
  0
POLYLINE
  8
LAYER_2
  6
AIGENLINE006
 40
0.1094
 41
0.1094
 66
1
 10
0
 20
0
 30
0
 70
128
  0
VERTEX
  8
LAYER_2
 10
45.2509
 20
87.28
  0
VERTEX
  8
LAYER_2
 10
44.4293
 20
79.2155
  0
SEQEND
  0
INSERT
  8
LAYER_2
  2
AIGNBL02010031
 10
0
 20
0
 30
0
  0
POLYLINE
  8
LAYER_2
  6
AIGENLINE007
 40
0.1094
 41
0.1094
 66
1
 10
0
 20
0
 30
0
 70
128
  0
VERTEX
  8
LAYER_2
 10
50.7267
 20
94.2514
  0
VERTEX
  8
LAYER_2
 10
49.5135
 20
84.4741
  0
SEQEND
  0
INSERT
  8
LAYER_2
  2
AIGNBL02010032
 10
0
 20
0
 30
0
  0
INSERT
  8
LAYER_2
  2
AIGNBL02010033
 10
0
 20
0
 30
0
  0
POLYLINE
  8
LAYER_2
 40
0.1764
 41
0.1764
 66
1
 10
0
 20
0
 30
0
 70
1
  0
VERTEX
  8
LAYER_2
 10
92.1555
 20
193.014
  0
VERTEX
  8
LAYER_2
 10
50.6554
 20
193.014
  0
VERTEX
  8
LAYER_2
 10
50.6554
 20
157.014
  0
VERTEX
  8
LAYER_2
 10
92.1555
 20
157.014
  0
SEQEND
  0
POLYLINE
  8
LAYER_2
 40
0.1764
 41
0.1764
 66
1
 10
0
 20
0
 30
0
  0
VERTEX
  8
LAYER_2
 10
52.1497
 20
195.014
  0
VERTEX
  8
LAYER_2
 10
94.1554
 20
195.014
  0
VERTEX
  8
LAYER_2
 10
94.1554
 20
193.014
  0
SEQEND
  0
POLYLINE
  8
LAYER_2
 40
0.1764
 41
0.1764
 66
1
 10
0
 20
0
 30
0
  0
VERTEX
  8
LAYER_2
 10
48.6554
 20
193.014
  0
VERTEX
  8
LAYER_2
 10
48.6554
 20
194.1085
  0
VERTEX
  8
LAYER_2
 10
48.6555
 20
195.014
  0
VERTEX
  8
LAYER_2
 10
94.1555
 20
195.014
  0
VERTEX
  8
LAYER_2
 10
94.1555
 20
155.014
  0
VERTEX
  8
LAYER_2
 10
48.6554
 20
155.014
  0
VERTEX
  8
LAYER_2
 10
48.6554
 20
195.014
  0
SEQEND
  0
INSERT
  8
LAYER_2
  2
AIGNBL02010036
 10
0
 20
0
 30
0
  0
INSERT
  8
LAYER_2
  2
AIGNBL02010037
 10
0
 20
0
 30
0
  0
POLYLINE
  8
LAYER_2
 40
0.0353
 41
0.0353
 66
1
 10
0
 20
0
 30
0
  0
VERTEX
  8
LAYER_2
 10
41.6533
 20
155.014
  0
VERTEX
  8
LAYER_2
 10
37.8364
 20
155.014
  0
VERTEX
  8
LAYER_2
 10
37.8364
 20
195.014
  0
VERTEX
  8
LAYER_2
 10
41.6533
 20
195.014
  0
SEQEND
  0
INSERT
  8
LAYER_2
  2
AIGNBL02010038
 10
0
 20
0
 30
0
  0
POLYLINE
  8
LAYER_2
 40
0.0353
 41
0.0353
 66
1
 10
0
 20
0
 30
0
  0
VERTEX
  8
LAYER_2
 10
94.1555
 20
202.7077
  0
VERTEX
  8
LAYER_2
 10
94.1555
 20
206.5246
  0
VERTEX
  8
LAYER_2
 10
48.6555
 20
206.5246
  0
VERTEX
  8
LAYER_2
 10
48.6555
 20
202.7077
  0
SEQEND
  0
INSERT
  8
LAYER_2
  2
AIGNBL02010039
 10
0
 20
0
 30
0
  0
INSERT
  8
LAYER_2
  2
AIGNBL0201003A
 10
0
 20
0
 30
0
  0
POLYLINE
  8
LAYER_2
 40
0.1764
 41
0.1764
 66
1
 10
0
 20
0
 30
0
  0
VERTEX
  8
LAYER_2
 10
194.0931
 20
135.3779
  0
VERTEX
  8
LAYER_2
 10
194.0931
 20
133.3779
  0
SEQEND
  0
POLYLINE
  8
LAYER_2
 40
0.1764
 41
0.1764
 66
1
 10
0
 20
0
 30
0
  0
VERTEX
  8
LAYER_2
 10
192.0931
 20
135.0779
  0
VERTEX
  8
LAYER_2
 10
190.0931
 20
135.0779
  0
VERTEX
  8
LAYER_2
 10
190.0931
 20
135.3779
  0
VERTEX
  8
LAYER_2
 10
192.0931
 20
135.3779
  0
SEQEND
  0
TEXT
  8
LAYER_2
 10
37.1234
 20
174.8509
 11
37.1234
 21
174.8509
 40
3.6505
 41
0.5
 50
89.99999999
  1
400
  0
TEXT
  8
LAYER_2
 10
70.6088
 20
148.6683
 11
70.6088
 21
148.6683
 40
3.2022
 41
0.5
  1
横
  0
TEXT
  8
LAYER_2
 10
150.8882
 20
148.6683
 11
150.8882
 21
148.6683
 40
3.2022
 41
0.5
  1
正面
  0
TEXT
  8
LAYER_2
 10
150.8882
 20
88.2438
 11
150.8882
 21
88.2438
 40
3.2022
 41
0.5
  1
平面
  0
POLYLINE
  8
LAYER_2
 40
0.1764
 41
0.1764
 66
1
 10
0
 20
0
 30
0
  0
VERTEX
  8
LAYER_2
 10
115.4931
 20
193.014
  0
VERTEX
  8
LAYER_2
 10
115.4932
 20
195.014
  0
VERTEX
  8
LAYER_2
 10
124.0463
 20
195.014
  0
SEQEND
  0
INSERT
  8
LAYER_2
  2
AIGNBL0201003B
 10
0
 20
0
 30
0
  0
POLYLINE
  8
LAYER_2
 40
0.1764
 41
0.1764
 66
1
 10
0
 20
0
 30
0
  0
VERTEX
  8
LAYER_2
 10
115.4932
 20
135.3779
  0
VERTEX
  8
LAYER_2
 10
115.4931
 20
133.3779
  0
SEQEND
  0
POLYLINE
  8
LAYER_2
 40
0.1764
 41
0.1764
 66
1
 10
0
 20
0
 30
0
 70
1
  0
VERTEX
  8
LAYER_2
 10
192.0931
 20
193.014
  0
VERTEX
  8
LAYER_2
 10
117.4931
 20
193.014
  0
VERTEX
  8
LAYER_2
 10
117.4931
 20
157.014
  0
VERTEX
  8
LAYER_2
 10
192.0931
 20
157.014
  0
SEQEND
  0
POLYLINE
  8
LAYER_2
 40
0.1764
 41
0.1764
 66
1
 10
0
 20
0
 30
0
  0
VERTEX
  8
LAYER_2
 10
118.9874
 20
195.014
  0
VERTEX
  8
LAYER_2
 10
194.0931
 20
195.014
  0
VERTEX
  8
LAYER_2
 10
115.4931
 20
195.014
  0
VERTEX
  8
LAYER_2
 10
115.4931
 20
155.014
  0
VERTEX
  8
LAYER_2
 10
194.0931
 20
155.014
  0
VERTEX
  8
LAYER_2
 10
194.0931
 20
195.014
  0
VERTEX
  8
LAYER_2
 10
194.0931
 20
193.014
  0
SEQEND
  0
POLYLINE
  8
LAYER_2
 40
0.0353
 41
0.0353
 66
1
 10
0
 20
0
 30
0
  0
VERTEX
  8
LAYER_2
 10
115.4931
 20
202.7077
  0
VERTEX
  8
LAYER_2
 10
115.4931
 20
206.5246
  0
VERTEX
  8
LAYER_2
 10
194.0931
 20
206.5246
  0
VERTEX
  8
LAYER_2
 10
194.0931
 20
202.7077
  0
SEQEND
  0
POLYLINE
  8
LAYER_2
 40
0.1764
 41
0.1764
 66
1
 10
0
 20
0
 30
0
  0
VERTEX
  8
LAYER_2
 10
117.4931
 20
135.0779
  0
VERTEX
  8
LAYER_2
 10
119.4931
 20
135.0779
  0
VERTEX
  8
LAYER_2
 10
119.4931
 20
135.3779
  0
VERTEX
  8
LAYER_2
 10
117.4931
 20
135.3779
  0
VERTEX
  8
LAYER_2
 10
117.4931
 20
97.3779
  0
VERTEX
  8
LAYER_2
 10
192.0931
 20
97.3779
  0
VERTEX
  8
LAYER_2
 10
192.0931
 20
135.3779
  0
VERTEX
  8
LAYER_2
 10
194.0931
 20
135.3779
  0
VERTEX
  8
LAYER_2
 10
194.0931
 20
95.3779
  0
VERTEX
  8
LAYER_2
 10
115.4931
 20
95.3779
  0
VERTEX
  8
LAYER_2
 10
115.4931
 20
135.3779
  0
VERTEX
  8
LAYER_2
 10
117.4931
 20
135.3779
  0
SEQEND
  0
INSERT
  8
LAYER_2
  2
AIGNBL0201003C
 10
0
 20
0
 30
0
  0
INSERT
  8
LAYER_2
  2
AIGNBL0201003D
 10
0
 20
0
 30
0
  0
POLYLINE
  8
LAYER_2
 40
0.0353
 41
0.0353
 66
1
 10
0
 20
0
 30
0
  0
VERTEX
  8
LAYER_2
 10
108.1871
 20
95.3779
  0
VERTEX
  8
LAYER_2
 10
104.3702
 20
95.3779
  0
VERTEX
  8
LAYER_2
 10
104.3702
 20
135.3779
  0
VERTEX
  8
LAYER_2
 10
108.1871
 20
135.3779
  0
SEQEND
  0
TEXT
  8
LAYER_2
 10
103.2709
 20
114.2852
 11
103.2709
 21
114.2852
 40
3.6505
 41
0.5
 50
89.99999999
  1
400
  0
INSERT
  8
LAYER_2
  2
AIGNBL0201003E
 10
0
 20
0
 30
0
  0
INSERT
  8
LAYER_2
  2
AIGNBL0201003F
 10
0
 20
0
 30
0
  0
POLYLINE
  8
LAYER_2
 40
0.0353
 41
0.0353
 66
1
 10
0
 20
0
 30
0
  0
VERTEX
  8
LAYER_2
 10
110.6025
 20
187.764
  0
VERTEX
  8
LAYER_2
 10
106.7856
 20
187.764
  0
VERTEX
  8
LAYER_2
 10
106.7856
 20
195.014
  0
VERTEX
  8
LAYER_2
 10
110.6025
 20
195.014
  0
SEQEND
  0
TEXT
  8
LAYER_2
 10
106.0723
 20
188.0325
 11
106.0723
 21
188.0325
 40
3.6505
 41
0.5
 50
89.99999999
  1
72.5
  0
POLYLINE
  8
LAYER_2
 40
0.1764
 41
0.1764
 66
1
 10
0
 20
0
 30
0
  0
VERTEX
  8
LAYER_2
 10
117.4931
 20
189.764
  0
VERTEX
  8
LAYER_2
 10
118.9931
 20
189.764
 42
-0.4142539508
  0
VERTEX
  8
LAYER_2
 10
119.4931
 20
189.264
  0
VERTEX
  8
LAYER_2
 10
119.4931
 20
186.073
 42
-0.2840840338
  0
VERTEX
  8
LAYER_2
 10
119.2167
 20
185.6258
  0
VERTEX
  8
LAYER_2
 10
117.4931
 20
184.764
  0
SEQEND
  0
POLYLINE
  8
LAYER_2
 40
0.1764
 41
0.1764
 66
1
 10
0
 20
0
 30
0
  0
VERTEX
  8
LAYER_2
 10
192.0931
 20
189.764
  0
VERTEX
  8
LAYER_2
 10
190.5931
 20
189.764
 42
0.414208009
  0
VERTEX
  8
LAYER_2
 10
190.0931
 20
189.264
  0
VERTEX
  8
LAYER_2
 10
190.0931
 20
186.073
 42
0.2840461397
  0
VERTEX
  8
LAYER_2
 10
190.3695
 20
185.6258
  0
VERTEX
  8
LAYER_2
 10
192.0931
 20
184.764
  0
SEQEND
  0
INSERT
  8
LAYER_2
  2
AIGNBL02010040
 10
0
 20
0
 30
0
  0
POLYLINE
  8
LAYER_2
 40
0.0353
 41
0.0353
 66
1
 10
0
 20
0
 30
0
  0
VERTEX
  8
LAYER_2
 10
191.0431
 20
187.764
  0
VERTEX
  8
LAYER_2
 10
118.5431
 20
187.764
  0
SEQEND
  0
INSERT
  8
LAYER_2
  2
AIGNBL02010041
 10
0
 20
0
 30
0
  0
TEXT
  8
LAYER_2
 10
151.7866
 20
184.0522
 11
151.7866
 21
184.0522
 40
3.6505
 41
0.5
  1
725
  0
TEXT
  8
LAYER_2
 10
68.7354
 20
207.6728
 11
68.7354
 21
207.6728
 40
3.6505
 41
0.5
  1
455
  0
TEXT
  8
LAYER_2
 10
151.7911
 20
207.6728
 11
151.7911
 21
207.6728
 40
3.6505
 41
0.5
  1
786
  0
POLYLINE
  8
LAYER_2
 40
0.1764
 41
0.1764
 66
1
 10
0
 20
0
 30
0
 70
1
  0
VERTEX
  8
LAYER_2
 10
118.0431
 20
186.514
 42
0.4141731804
  0
VERTEX
  8
LAYER_2
 10
118.5431
 20
186.014
 42
0.4142191108
  0
VERTEX
  8
LAYER_2
 10
119.0431
 20
186.514
  0
VERTEX
  8
LAYER_2
 10
119.0431
 20
189.014
 42
0.4142539508
  0
VERTEX
  8
LAYER_2
 10
118.5431
 20
189.514
 42
0.4142080089
  0
VERTEX
  8
LAYER_2
 10
118.0431
 20
189.014
  0
SEQEND
  0
POLYLINE
  8
LAYER_2
 40
0.1764
 41
0.1764
 66
1
 10
0
 20
0
 30
0
 70
1
  0
VERTEX
  8
LAYER_2
 10
190.5431
 20
186.514
 42
0.4141731804
  0
VERTEX
  8
LAYER_2
 10
191.0431
 20
186.014
 42
0.4142191108
  0
VERTEX
  8
LAYER_2
 10
191.5431
 20
186.514
  0
VERTEX
  8
LAYER_2
 10
191.5431
 20
189.014
 42
0.4142539508
  0
VERTEX
  8
LAYER_2
 10
191.0431
 20
189.514
 42
0.4142080089
  0
VERTEX
  8
LAYER_2
 10
190.5431
 20
189.014
  0
SEQEND
  0
TEXT
  8
LAYER_2
 10
218.81
 20
159.5357
 11
218.81
 21
159.5357
 40
3.2022
 41
0.5
  1
壁固定穴の形状
  0
POLYLINE
  8
LAYER_2
 40
0.1764
 41
0.1764
 66
1
 10
0
 20
0
 30
0
 70
1
  0
VERTEX
  8
LAYER_2
 10
225.6556
 20
173.2611
 42
0.4142155149
  0
VERTEX
  8
LAYER_2
 10
230.6556
 20
168.2611
 42
0.4142103082
  0
VERTEX
  8
LAYER_2
 10
235.6556
 20
173.2611
  0
VERTEX
  8
LAYER_2
 10
235.6556
 20
198.2611
 42
0.4142116097
  0
VERTEX
  8
LAYER_2
 10
230.6556
 20
203.2611
 42
0.4142168169
  0
VERTEX
  8
LAYER_2
 10
225.6556
 20
198.2611
  0
SEQEND
  0
TEXT
  8
LAYER_2
 10
216.8906
 20
184.1361
 11
216.8906
 21
184.1361
 40
3.6505
 41
0.5
 50
89.99999999
  1
35
  0
INSERT
  8
LAYER_2
  2
AIGNBL02010042
 10
0
 20
0
 30
0
  0
INSERT
  8
LAYER_2
  2
AIGNBL02010043
 10
0
 20
0
 30
0
  0
POLYLINE
  8
LAYER_2
 40
0.0353
 41
0.0353
 66
1
 10
0
 20
0
 30
0
  0
VERTEX
  8
LAYER_2
 10
221.9801
 20
168.2611
  0
VERTEX
  8
LAYER_2
 10
217.298
 20
168.2611
  0
VERTEX
  8
LAYER_2
 10
217.298
 20
203.2611
  0
VERTEX
  8
LAYER_2
 10
221.9801
 20
203.2611
  0
SEQEND
  0
INSERT
  8
LAYER_2
  2
AIGNBL02010044
 10
0
 20
0
 30
0
  0
INSERT
  8
LAYER_2
  2
AIGNBL02010045
 10
0
 20
0
 30
0
  0
POLYLINE
  8
LAYER_2
 40
0.0353
 41
0.0353
 66
1
 10
0
 20
0
 30
0
  0
VERTEX
  8
LAYER_2
 10
235.6556
 20
205.4959
  0
VERTEX
  8
LAYER_2
 10
235.6556
 20
209.5974
  0
VERTEX
  8
LAYER_2
 10
225.6556
 20
209.5974
  0
VERTEX
  8
LAYER_2
 10
225.6556
 20
205.4959
  0
SEQEND
  0
TEXT
  8
LAYER_2
 10
229.0306
 20
210.0048
 11
229.0306
 21
210.0048
 40
3.6505
 41
0.5
  1
10
  0
ENDSEC
  0
EOF
