  0
SECTION
  2
HEADER
  9
$ACADVER
  1
AC1009
  9
$LUNITS
 70
2
  9
$LUPREC
 70
4
  9
$LTSCALE
 40
1.0
  9
$EXTMIN
 10
81.3034
 20
-590.0332
 30
0
  9
$EXTMAX
 10
794.4538
 20
-47.2717
 30
0
  0
ENDSEC
  0
SECTION
  2
TABLES
  0
TABLE
  2
LTYPE
 70
256
  0
LTYPE
  2
AIGENLINE001
 70
64
  3
generate AI->DXF Converter
 72
65
 73
2
 40
1.9999
 49
0.9999
 49
-0.9999
  0
ENDTAB
  0
TABLE
  2
LAYER
 70
1
  0
LAYER
  2
LAYER_1
 70
64
 62
7
  6
CONTINUOUS
  0
ENDTAB
  0
TABLE
  2
STYLE
 70
6
  0
STYLE
  2
STANDARD
 70
0
 40
0
 50
0
 71
0
 41
0
 42
0
  3
TXT
  4
BIGFONT
  0
ENDTAB
  0
ENDSEC
  0
SECTION
  2
BLOCKS
  0
BLOCK
  8
LAYER_1
  2
AIGNBL01040006
 70
64
 10
0
 20
0
 30
0
  3
AIGNBL01040006
  0
POLYLINE
  8
LAYER_1
 40
0.05
 41
0.05
 66
1
 10
0
 20
0
 30
0
 70
1
  0
VERTEX
  8
LAYER_1
 10
129.7059
 20
-56.796
  0
VERTEX
  8
LAYER_1
 10
126.4536
 20
-55.925
  0
VERTEX
  8
LAYER_1
 10
129.7059
 20
-55.0528
  0
SEQEND
  0
ENDBLK
  0
BLOCK
  8
LAYER_1
  2
AIGNBL01040007
 70
64
 10
0
 20
0
 30
0
  3
AIGNBL01040007
  0
POLYLINE
  8
LAYER_1
 40
0.05
 41
0.05
 66
1
 10
0
 20
0
 30
0
 70
1
  0
VERTEX
  8
LAYER_1
 10
791.2016
 20
-56.796
  0
VERTEX
  8
LAYER_1
 10
794.4538
 20
-55.925
  0
VERTEX
  8
LAYER_1
 10
791.2016
 20
-55.0528
  0
SEQEND
  0
ENDBLK
  0
BLOCK
  8
LAYER_1
  2
AIGNBL0104000B
 70
64
 10
0
 20
0
 30
0
  3
AIGNBL0104000B
  0
POLYLINE
  8
LAYER_1
 40
0.05
 41
0.05
 66
1
 10
0
 20
0
 30
0
 70
1
  0
VERTEX
  8
LAYER_1
 10
163.206
 20
-72.2781
  0
VERTEX
  8
LAYER_1
 10
159.9537
 20
-71.4071
  0
VERTEX
  8
LAYER_1
 10
163.206
 20
-70.5349
  0
SEQEND
  0
ENDBLK
  0
BLOCK
  8
LAYER_1
  2
AIGNBL0104000C
 70
64
 10
0
 20
0
 30
0
  3
AIGNBL0104000C
  0
POLYLINE
  8
LAYER_1
 40
0.05
 41
0.05
 66
1
 10
0
 20
0
 30
0
 70
1
  0
VERTEX
  8
LAYER_1
 10
757.7018
 20
-72.2781
  0
VERTEX
  8
LAYER_1
 10
760.9541
 20
-71.4071
  0
VERTEX
  8
LAYER_1
 10
757.7018
 20
-70.5349
  0
SEQEND
  0
ENDBLK
  0
BLOCK
  8
LAYER_1
  2
AIGNBL01040010
 70
64
 10
0
 20
0
 30
0
  3
AIGNBL01040010
  0
POLYLINE
  8
LAYER_1
 40
0.05
 41
0.05
 66
1
 10
0
 20
0
 30
0
 70
1
  0
VERTEX
  8
LAYER_1
 10
112.1382
 20
-527.8085
  0
VERTEX
  8
LAYER_1
 10
111.2672
 20
-531.0608
  0
VERTEX
  8
LAYER_1
 10
110.3951
 20
-527.8085
  0
SEQEND
  0
ENDBLK
  0
BLOCK
  8
LAYER_1
  2
AIGNBL01040011
 70
64
 10
0
 20
0
 30
0
  3
AIGNBL01040011
  0
POLYLINE
  8
LAYER_1
 40
0.05
 41
0.05
 66
1
 10
0
 20
0
 30
0
 70
1
  0
VERTEX
  8
LAYER_1
 10
112.1382
 20
-125.313
  0
VERTEX
  8
LAYER_1
 10
111.2672
 20
-122.0608
  0
VERTEX
  8
LAYER_1
 10
110.3951
 20
-125.313
  0
SEQEND
  0
ENDBLK
  0
BLOCK
  8
LAYER_1
  2
AIGNBL01040015
 70
64
 10
0
 20
0
 30
0
  3
AIGNBL01040015
  0
POLYLINE
  8
LAYER_1
 40
0.05
 41
0.05
 66
1
 10
0
 20
0
 30
0
 70
1
  0
VERTEX
  8
LAYER_1
 10
99.0796
 20
-561.3087
  0
VERTEX
  8
LAYER_1
 10
98.2087
 20
-564.5609
  0
VERTEX
  8
LAYER_1
 10
97.3365
 20
-561.3087
  0
SEQEND
  0
ENDBLK
  0
BLOCK
  8
LAYER_1
  2
AIGNBL01040016
 70
64
 10
0
 20
0
 30
0
  3
AIGNBL01040016
  0
POLYLINE
  8
LAYER_1
 40
0.05
 41
0.05
 66
1
 10
0
 20
0
 30
0
 70
1
  0
VERTEX
  8
LAYER_1
 10
99.0796
 20
-91.8128
  0
VERTEX
  8
LAYER_1
 10
98.2087
 20
-88.5607
  0
VERTEX
  8
LAYER_1
 10
97.3365
 20
-91.8128
  0
SEQEND
  0
ENDBLK
  0
BLOCK
  8
LAYER_1
  2
AIGNBL01030005
 70
64
 10
0
 20
0
 30
0
  3
AIGNBL01030005
  0
POLYLINE
  8
LAYER_1
 40
0.1199
 41
0.1199
 66
1
 10
0
 20
0
 30
0
  0
VERTEX
  8
LAYER_1
 10
129.1114
 20
-55.961
  0
VERTEX
  8
LAYER_1
 10
791.796
 20
-55.961
  0
SEQEND
  0
INSERT
  8
LAYER_1
  2
AIGNBL01040006
 10
0
 20
0
 30
0
  0
INSERT
  8
LAYER_1
  2
AIGNBL01040007
 10
0
 20
0
 30
0
  0
ENDBLK
  0
BLOCK
  8
LAYER_1
  2
AIGNBL0103000A
 70
64
 10
0
 20
0
 30
0
  3
AIGNBL0103000A
  0
POLYLINE
  8
LAYER_1
 40
0.1199
 41
0.1199
 66
1
 10
0
 20
0
 30
0
  0
VERTEX
  8
LAYER_1
 10
162.6115
 20
-71.4431
  0
VERTEX
  8
LAYER_1
 10
758.2963
 20
-71.4431
  0
SEQEND
  0
INSERT
  8
LAYER_1
  2
AIGNBL0104000B
 10
0
 20
0
 30
0
  0
INSERT
  8
LAYER_1
  2
AIGNBL0104000C
 10
0
 20
0
 30
0
  0
ENDBLK
  0
BLOCK
  8
LAYER_1
  2
AIGNBL0103000F
 70
64
 10
0
 20
0
 30
0
  3
AIGNBL0103000F
  0
POLYLINE
  8
LAYER_1
 40
0.1199
 41
0.1199
 66
1
 10
0
 20
0
 30
0
  0
VERTEX
  8
LAYER_1
 10
111.3033
 20
-528.403
  0
VERTEX
  8
LAYER_1
 10
111.3033
 20
-124.7186
  0
SEQEND
  0
INSERT
  8
LAYER_1
  2
AIGNBL01040010
 10
0
 20
0
 30
0
  0
INSERT
  8
LAYER_1
  2
AIGNBL01040011
 10
0
 20
0
 30
0
  0
ENDBLK
  0
BLOCK
  8
LAYER_1
  2
AIGNBL01030014
 70
64
 10
0
 20
0
 30
0
  3
AIGNBL01030014
  0
POLYLINE
  8
LAYER_1
 40
0.1199
 41
0.1199
 66
1
 10
0
 20
0
 30
0
  0
VERTEX
  8
LAYER_1
 10
98.2447
 20
-561.903
  0
VERTEX
  8
LAYER_1
 10
98.2447
 20
-91.2186
  0
SEQEND
  0
INSERT
  8
LAYER_1
  2
AIGNBL01040015
 10
0
 20
0
 30
0
  0
INSERT
  8
LAYER_1
  2
AIGNBL01040016
 10
0
 20
0
 30
0
  0
ENDBLK
  0
BLOCK
  8
LAYER_1
  2
AIGNBL01020004
 70
64
 10
0
 20
0
 30
0
  3
AIGNBL01020004
  0
INSERT
  8
LAYER_1
  2
AIGNBL01030005
 10
0
 20
0
 30
0
  0
ENDBLK
  0
BLOCK
  8
LAYER_1
  2
AIGNBL01020009
 70
64
 10
0
 20
0
 30
0
  3
AIGNBL01020009
  0
INSERT
  8
LAYER_1
  2
AIGNBL0103000A
 10
0
 20
0
 30
0
  0
ENDBLK
  0
BLOCK
  8
LAYER_1
  2
AIGNBL0102000E
 70
64
 10
0
 20
0
 30
0
  3
AIGNBL0102000E
  0
INSERT
  8
LAYER_1
  2
AIGNBL0103000F
 10
0
 20
0
 30
0
  0
ENDBLK
  0
BLOCK
  8
LAYER_1
  2
AIGNBL01020013
 70
64
 10
0
 20
0
 30
0
  3
AIGNBL01020013
  0
INSERT
  8
LAYER_1
  2
AIGNBL01030014
 10
0
 20
0
 30
0
  0
ENDBLK
  0
BLOCK
  8
LAYER_1
  2
AIGNBL01010002
 70
64
 10
0
 20
0
 30
0
  3
AIGNBL01010002
  0
POLYLINE
  8
LAYER_1
  6
AIGENLINE001
 40
0.7056
 41
0.7056
 66
1
 10
0
 20
0
 30
0
 70
129
  0
VERTEX
  8
LAYER_1
 10
794.4538
 20
-326.5609
 42
-0.03540393443
  0
VERTEX
  8
LAYER_1
 10
792.7294
 20
-350.895
 42
-0.03463383874
  0
VERTEX
  8
LAYER_1
 10
787.6681
 20
-374.5262
 42
-0.03316551632
  0
VERTEX
  8
LAYER_1
 10
779.4378
 20
-397.3349
 42
-0.03125393222
  0
VERTEX
  8
LAYER_1
 10
768.2064
 20
-419.2013
 42
-0.02915608227
  0
VERTEX
  8
LAYER_1
 10
754.1418
 20
-440.0059
 42
-0.02707791292
  0
VERTEX
  8
LAYER_1
 10
737.4118
 20
-459.629
 42
-0.0251563708
  0
VERTEX
  8
LAYER_1
 10
718.1843
 20
-477.9511
 42
-0.02346612644
  0
VERTEX
  8
LAYER_1
 10
696.6274
 20
-494.8524
 42
-0.02203622641
  0
VERTEX
  8
LAYER_1
 10
672.9087
 20
-510.2133
 42
-0.020866827
  0
VERTEX
  8
LAYER_1
 10
647.1962
 20
-523.9143
 42
-0.01994198457
  0
VERTEX
  8
LAYER_1
 10
619.6578
 20
-535.8356
 42
-0.01923801357
  0
VERTEX
  8
LAYER_1
 10
590.4615
 20
-545.8577
 42
-0.01872831723
  0
VERTEX
  8
LAYER_1
 10
559.7749
 20
-553.8609
 42
-0.0183858252
  0
VERTEX
  8
LAYER_1
 10
527.7662
 20
-559.7256
 42
-0.01818397029
  0
VERTEX
  8
LAYER_1
 10
494.6031
 20
-563.3321
 42
-0.01809686212
  0
VERTEX
  8
LAYER_1
 10
460.4535
 20
-564.5609
 42
-0.0180201395
  0
VERTEX
  8
LAYER_1
 10
426.3039
 20
-563.3321
 42
-0.0180887316
  0
VERTEX
  8
LAYER_1
 10
393.1409
 20
-559.7256
 42
-0.01826638474
  0
VERTEX
  8
LAYER_1
 10
361.1321
 20
-553.8609
 42
-0.01857890807
  0
VERTEX
  8
LAYER_1
 10
330.4456
 20
-545.8577
 42
-0.01905279753
  0
VERTEX
  8
LAYER_1
 10
301.2493
 20
-535.8356
 42
-0.01971518926
  0
VERTEX
  8
LAYER_1
 10
273.711
 20
-523.9143
 42
-0.02059313342
  0
VERTEX
  8
LAYER_1
 10
247.9985
 20
-510.2133
 42
-0.0217115896
  0
VERTEX
  8
LAYER_1
 10
224.2799
 20
-494.8524
 42
-0.02308927563
  0
VERTEX
  8
LAYER_1
 10
202.7229
 20
-477.9511
 42
-0.02473125695
  0
VERTEX
  8
LAYER_1
 10
183.4955
 20
-459.629
 42
-0.02661723079
  0
VERTEX
  8
LAYER_1
 10
166.7656
 20
-440.0059
 42
-0.02868547489
  0
VERTEX
  8
LAYER_1
 10
152.701
 20
-419.2013
 42
-0.03081536758
  0
VERTEX
  8
LAYER_1
 10
141.4696
 20
-397.3349
 42
-0.0328167871
  0
VERTEX
  8
LAYER_1
 10
133.2393
 20
-374.5262
 42
-0.03444046629
  0
VERTEX
  8
LAYER_1
 10
128.178
 20
-350.895
 42
-0.03542234563
  0
VERTEX
  8
LAYER_1
 10
126.4536
 20
-326.5609
 42
-0.03540388322
  0
VERTEX
  8
LAYER_1
 10
128.178
 20
-302.2268
 42
-0.03463377401
  0
VERTEX
  8
LAYER_1
 10
133.2393
 20
-278.5956
 42
-0.03316544876
  0
VERTEX
  8
LAYER_1
 10
141.4696
 20
-255.787
 42
-0.03125387091
  0
VERTEX
  8
LAYER_1
 10
152.701
 20
-233.9205
 42
-0.02915603334
  0
VERTEX
  8
LAYER_1
 10
166.7656
 20
-213.1159
 42
-0.02707787943
  0
VERTEX
  8
LAYER_1
 10
183.4955
 20
-193.4928
 42
-0.02515635346
  0
VERTEX
  8
LAYER_1
 10
202.7229
 20
-175.1707
 42
-0.0234661245
  0
VERTEX
  8
LAYER_1
 10
224.2799
 20
-158.2694
 42
-0.02203623838
  0
VERTEX
  8
LAYER_1
 10
247.9985
 20
-142.9084
 42
-0.02086685113
  0
VERTEX
  8
LAYER_1
 10
273.711
 20
-129.2074
 42
-0.01994201907
  0
VERTEX
  8
LAYER_1
 10
301.2493
 20
-117.2861
 42
-0.0192380567
  0
VERTEX
  8
LAYER_1
 10
330.4456
 20
-107.2639
 42
-0.01872836731
  0
VERTEX
  8
LAYER_1
 10
361.1321
 20
-99.2607
 42
-0.01838588057
  0
VERTEX
  8
LAYER_1
 10
393.1409
 20
-93.396
 42
-0.01818402925
  0
VERTEX
  8
LAYER_1
 10
426.3039
 20
-89.7895
 42
-0.01809692287
  0
VERTEX
  8
LAYER_1
 10
460.4535
 20
-88.5607
 42
-0.01802017635
  0
VERTEX
  8
LAYER_1
 10
494.6031
 20
-89.7895
 42
-0.01808875787
  0
VERTEX
  8
LAYER_1
 10
527.7662
 20
-93.396
 42
-0.01826640033
  0
VERTEX
  8
LAYER_1
 10
559.7749
 20
-99.2607
 42
-0.0185789131
  0
VERTEX
  8
LAYER_1
 10
590.4615
 20
-107.2639
 42
-0.01905279229
  0
VERTEX
  8
LAYER_1
 10
619.6578
 20
-117.2861
 42
-0.01971517428
  0
VERTEX
  8
LAYER_1
 10
647.1962
 20
-129.2074
 42
-0.02059310953
  0
VERTEX
  8
LAYER_1
 10
672.9087
 20
-142.9084
 42
-0.02171155813
  0
VERTEX
  8
LAYER_1
 10
696.6274
 20
-158.2694
 42
-0.02308923864
  0
VERTEX
  8
LAYER_1
 10
718.1843
 20
-175.1707
 42
-0.02473121761
  0
VERTEX
  8
LAYER_1
 10
737.4118
 20
-193.4928
 42
-0.02661719372
  0
VERTEX
  8
LAYER_1
 10
754.1418
 20
-213.1159
 42
-0.02868544643
  0
VERTEX
  8
LAYER_1
 10
768.2064
 20
-233.9205
 42
-0.03081535559
  0
VERTEX
  8
LAYER_1
 10
779.4378
 20
-255.787
 42
-0.03281679997
  0
VERTEX
  8
LAYER_1
 10
787.6681
 20
-278.5956
 42
-0.03444051083
  0
VERTEX
  8
LAYER_1
 10
792.7294
 20
-302.2268
 42
-0.03542242418
  0
SEQEND
  0
ENDBLK
  0
BLOCK
  8
LAYER_1
  2
AIGNBL01010003
 70
64
 10
0
 20
0
 30
0
  3
AIGNBL01010003
  0
POLYLINE
  8
LAYER_1
 40
0.1199
 41
0.1199
 66
1
 10
0
 20
0
 30
0
  0
VERTEX
  8
LAYER_1
 10
794.4538
 20
-53.0107
  0
VERTEX
  8
LAYER_1
 10
794.4538
 20
-326.561
  0
SEQEND
  0
POLYLINE
  8
LAYER_1
 40
0.1199
 41
0.1199
 66
1
 10
0
 20
0
 30
0
  0
VERTEX
  8
LAYER_1
 10
126.4536
 20
-326.561
  0
VERTEX
  8
LAYER_1
 10
126.4536
 20
-53.0107
  0
SEQEND
  0
INSERT
  8
LAYER_1
  2
AIGNBL01020004
 10
0
 20
0
 30
0
  0
ENDBLK
  0
BLOCK
  8
LAYER_1
  2
AIGNBL01010008
 70
64
 10
0
 20
0
 30
0
  3
AIGNBL01010008
  0
POLYLINE
  8
LAYER_1
 40
0.1199
 41
0.1199
 66
1
 10
0
 20
0
 30
0
  0
VERTEX
  8
LAYER_1
 10
760.9541
 20
-68.4431
  0
VERTEX
  8
LAYER_1
 10
760.9541
 20
-336.5934
  0
SEQEND
  0
POLYLINE
  8
LAYER_1
 40
0.1199
 41
0.1199
 66
1
 10
0
 20
0
 30
0
  0
VERTEX
  8
LAYER_1
 10
159.9537
 20
-336.5934
  0
VERTEX
  8
LAYER_1
 10
159.9537
 20
-68.4431
  0
SEQEND
  0
INSERT
  8
LAYER_1
  2
AIGNBL01020009
 10
0
 20
0
 30
0
  0
ENDBLK
  0
BLOCK
  8
LAYER_1
  2
AIGNBL0101000D
 70
64
 10
0
 20
0
 30
0
  3
AIGNBL0101000D
  0
POLYLINE
  8
LAYER_1
 40
0.1199
 41
0.1199
 66
1
 10
0
 20
0
 30
0
  0
VERTEX
  8
LAYER_1
 10
108.3856
 20
-122.0608
  0
VERTEX
  8
LAYER_1
 10
460.4539
 20
-122.0608
  0
SEQEND
  0
POLYLINE
  8
LAYER_1
 40
0.1199
 41
0.1199
 66
1
 10
0
 20
0
 30
0
  0
VERTEX
  8
LAYER_1
 10
460.4539
 20
-531.0608
  0
VERTEX
  8
LAYER_1
 10
108.3856
 20
-531.0608
  0
SEQEND
  0
INSERT
  8
LAYER_1
  2
AIGNBL0102000E
 10
0
 20
0
 30
0
  0
ENDBLK
  0
BLOCK
  8
LAYER_1
  2
AIGNBL01010012
 70
64
 10
0
 20
0
 30
0
  3
AIGNBL01010012
  0
POLYLINE
  8
LAYER_1
 40
0.1199
 41
0.1199
 66
1
 10
0
 20
0
 30
0
  0
VERTEX
  8
LAYER_1
 10
95.2447
 20
-88.5607
  0
VERTEX
  8
LAYER_1
 10
467.2452
 20
-88.5607
  0
SEQEND
  0
POLYLINE
  8
LAYER_1
 40
0.1199
 41
0.1199
 66
1
 10
0
 20
0
 30
0
  0
VERTEX
  8
LAYER_1
 10
467.2452
 20
-564.5609
  0
VERTEX
  8
LAYER_1
 10
95.2447
 20
-564.5609
  0
SEQEND
  0
INSERT
  8
LAYER_1
  2
AIGNBL01020013
 10
0
 20
0
 30
0
  0
ENDBLK
  0
ENDSEC
  0
SECTION
  2
ENTITIES
  0
INSERT
  8
LAYER_1
  2
AIGNBL01010002
 10
0
 20
0
 30
0
  0
POLYLINE
  8
LAYER_1
 40
1.7639
 41
1.7639
 66
1
 10
0
 20
0
 30
0
 70
1
  0
VERTEX
  8
LAYER_1
 10
760.9541
 20
-326.5606
 42
-0.03705941728
  0
VERTEX
  8
LAYER_1
 10
759.4026
 20
-347.4696
 42
-0.03613427922
  0
VERTEX
  8
LAYER_1
 10
754.849
 20
-367.7745
 42
-0.03437891991
  0
VERTEX
  8
LAYER_1
 10
747.4442
 20
-387.3727
 42
-0.03211783371
  0
VERTEX
  8
LAYER_1
 10
737.3392
 20
-406.1613
 42
-0.02967035211
  0
VERTEX
  8
LAYER_1
 10
724.6853
 20
-424.0375
 42
-0.02728138322
  0
VERTEX
  8
LAYER_1
 10
709.6333
 20
-440.8986
 42
-0.0251035004
  0
VERTEX
  8
LAYER_1
 10
692.3343
 20
-456.6417
 42
-0.02321141067
  0
VERTEX
  8
LAYER_1
 10
672.9395
 20
-471.1641
 42
-0.02162666482
  0
VERTEX
  8
LAYER_1
 10
651.5997
 20
-484.3629
 42
-0.02033983926
  0
VERTEX
  8
LAYER_1
 10
628.4662
 20
-496.1354
 42
-0.01932614872
  0
VERTEX
  8
LAYER_1
 10
603.6899
 20
-506.3787
 42
-0.01855489861
  0
VERTEX
  8
LAYER_1
 10
577.4219
 20
-514.9902
 42
-0.01799450958
  0
VERTEX
  8
LAYER_1
 10
549.8132
 20
-521.8669
 42
-0.01761476753
  0
VERTEX
  8
LAYER_1
 10
521.0149
 20
-526.9061
 42
-0.01738749345
  0
VERTEX
  8
LAYER_1
 10
491.178
 20
-530.005
 42
-0.01728639642
  0
VERTEX
  8
LAYER_1
 10
460.4536
 20
-531.0608
 42
-0.01721116248
  0
VERTEX
  8
LAYER_1
 10
429.7293
 20
-530.005
 42
-0.01729050654
  0
VERTEX
  8
LAYER_1
 10
399.8924
 20
-526.9061
 42
-0.01749032418
  0
VERTEX
  8
LAYER_1
 10
371.0942
 20
-521.8669
 42
-0.01783658953
  0
VERTEX
  8
LAYER_1
 10
343.4856
 20
-514.9902
 42
-0.01835709947
  0
VERTEX
  8
LAYER_1
 10
317.2176
 20
-506.3787
 42
-0.01908174729
  0
VERTEX
  8
LAYER_1
 10
292.4413
 20
-496.1354
 42
-0.02004211547
  0
VERTEX
  8
LAYER_1
 10
269.3078
 20
-484.3629
 42
-0.02126970903
  0
VERTEX
  8
LAYER_1
 10
247.9682
 20
-471.1641
 42
-0.02279174642
  0
VERTEX
  8
LAYER_1
 10
228.5733
 20
-456.6417
 42
-0.02462294702
  0
VERTEX
  8
LAYER_1
 10
211.2744
 20
-440.8986
 42
-0.02675150991
  0
VERTEX
  8
LAYER_1
 10
196.2225
 20
-424.0375
 42
-0.02911831229
  0
VERTEX
  8
LAYER_1
 10
183.5685
 20
-406.1613
 42
-0.03159186328
  0
VERTEX
  8
LAYER_1
 10
173.4636
 20
-387.3727
 42
-0.03394930389
  0
VERTEX
  8
LAYER_1
 10
166.0588
 20
-367.7745
 42
-0.0358838573
  0
VERTEX
  8
LAYER_1
 10
161.5051
 20
-347.4696
 42
-0.03706083844
  0
VERTEX
  8
LAYER_1
 10
159.9537
 20
-326.5606
 42
-0.03705934782
  0
VERTEX
  8
LAYER_1
 10
161.5051
 20
-305.6517
 42
-0.03613424553
  0
VERTEX
  8
LAYER_1
 10
166.0588
 20
-285.3467
 42
-0.03437891803
  0
VERTEX
  8
LAYER_1
 10
173.4636
 20
-265.7485
 42
-0.03211785493
  0
VERTEX
  8
LAYER_1
 10
183.5685
 20
-246.96
 42
-0.02967038659
  0
VERTEX
  8
LAYER_1
 10
196.2225
 20
-229.0838
 42
-0.02728142244
  0
VERTEX
  8
LAYER_1
 10
211.2744
 20
-212.2227
 42
-0.02510353811
  0
VERTEX
  8
LAYER_1
 10
228.5733
 20
-196.4797
 42
-0.02321144283
  0
VERTEX
  8
LAYER_1
 10
247.9682
 20
-181.9573
 42
-0.02162668907
  0
VERTEX
  8
LAYER_1
 10
269.3078
 20
-168.7586
 42
-0.0203398544
  0
VERTEX
  8
LAYER_1
 10
292.4413
 20
-156.9861
 42
-0.01932615425
  0
VERTEX
  8
LAYER_1
 10
317.2176
 20
-146.7428
 42
-0.01855489446
  0
VERTEX
  8
LAYER_1
 10
343.4856
 20
-138.1314
 42
-0.01799449591
  0
VERTEX
  8
LAYER_1
 10
371.0942
 20
-131.2547
 42
-0.01761474467
  0
VERTEX
  8
LAYER_1
 10
399.8924
 20
-126.2155
 42
-0.01738746185
  0
VERTEX
  8
LAYER_1
 10
429.7293
 20
-123.1166
 42
-0.01728635668
  0
VERTEX
  8
LAYER_1
 10
460.4536
 20
-122.0608
 42
-0.01721105826
  0
VERTEX
  8
LAYER_1
 10
491.178
 20
-123.1166
 42
-0.01729040842
  0
VERTEX
  8
LAYER_1
 10
521.0149
 20
-126.2155
 42
-0.01749023394
  0
VERTEX
  8
LAYER_1
 10
549.8132
 20
-131.2547
 42
-0.01783650885
  0
VERTEX
  8
LAYER_1
 10
577.4219
 20
-138.1314
 42
-0.01835703007
  0
VERTEX
  8
LAYER_1
 10
603.6899
 20
-146.7428
 42
-0.01908169098
  0
VERTEX
  8
LAYER_1
 10
628.4662
 20
-156.9861
 42
-0.0200420743
  0
VERTEX
  8
LAYER_1
 10
651.5997
 20
-168.7586
 42
-0.02126968537
  0
VERTEX
  8
LAYER_1
 10
672.9395
 20
-181.9573
 42
-0.02279174291
  0
VERTEX
  8
LAYER_1
 10
692.3343
 20
-196.4797
 42
-0.02462296634
  0
VERTEX
  8
LAYER_1
 10
709.6333
 20
-212.2227
 42
-0.02675155429
  0
VERTEX
  8
LAYER_1
 10
724.6853
 20
-229.0838
 42
-0.02911838242
  0
VERTEX
  8
LAYER_1
 10
737.3392
 20
-246.96
 42
-0.03159195679
  0
VERTEX
  8
LAYER_1
 10
747.4442
 20
-265.7485
 42
-0.03394941364
  0
VERTEX
  8
LAYER_1
 10
754.849
 20
-285.3467
 42
-0.03588397054
  0
VERTEX
  8
LAYER_1
 10
759.4026
 20
-305.6517
 42
-0.0370609382
  0
SEQEND
  0
INSERT
  8
LAYER_1
  2
AIGNBL01010003
 10
0
 20
0
 30
0
  0
INSERT
  8
LAYER_1
  2
AIGNBL01010008
 10
0
 20
0
 30
0
  0
INSERT
  8
LAYER_1
  2
AIGNBL0101000D
 10
0
 20
0
 30
0
  0
INSERT
  8
LAYER_1
  2
AIGNBL01010012
 10
0
 20
0
 30
0
  0
TEXT
  8
LAYER_1
 10
534.9169
 20
-54.0875
 11
534.9169
 21
-54.0875
 40
9.0226
 41
0.5
 72
1
  1
668  (brim  external dimension)
  0
TEXT
  8
LAYER_1
 10
566.4286
 20
-67.2621
 11
566.4286
 21
-67.2621
 40
9.0226
 41
0.5
 72
1
  1
601 ((locating plane installation dimension)
  0
TEXT
  8
LAYER_1
 10
108.011
 20
-222.1856
 11
108.011
 21
-222.1856
 40
9.0226
 41
0.5
 50
89.99999999
 72
1
  1
409 (locating plane installation dimension)
  0
TEXT
  8
LAYER_1
 10
94.4833
 20
-252.1646
 11
94.4833
 21
-252.1646
 40
9.0226
 41
0.5
 50
89.99999999
 72
1
  1
476  (brim  external dimension)
  0
TEXT
  8
LAYER_1
 10
107.24
 20
-588.1802
 11
107.24
 21
-588.1802
 40
9.0226
 41
0.5
  1
10020 radius is recommended for chamfering for openings using stone and wood.
  0
ENDSEC
  0
EOF
